Acordes de Guitarra » R »la Renga » En el baldío (Tab)

En el baldío
la Renga

Letras, Acordes y Tabs para Guitarra, Bajo y Ukulele

  • MI5              RE5
    desplumaban un angel en el cielo
    MI5              SOL5(riff 1)  
    desde aqui lo vi caer
    MI5             RE5 
    hacia el baldio de los misterios
    MI5             SOL5(riff 1) 
    yo corri desesperado
    MI5               RE5
    senti el ardor de una herida abierta
    MI5             SOL5(riff 1)
    esta el angel ahi tirado
    MI5               RE5
    y en sus ojos habló la tristesa
    
    SOL5           RE5-RE#5-MI5 (en el 7 trate,cuerda 5)
    no me mires así
    MI5              DO5 
    dios me ha hecho para caer
    SOL5               RE-RE#5-MI5
    
  •            - Abajo
    - - + para empezar, + - + - - + 
    m´m D               D m D m´m D
                        bis eternamente
    
    En Sol se puede hacer una bajdita:6/3 - 6/2 - 6/0
    
    MI                       SOL   MI
    Las garras de un terrible ser,
                   RE                 MI
    desplumaban un angel en el cielo,
                SOL       MI
    desde aqui lo vi caer,
                    RE               MI
    hacia el baldio de los misterios,
             SOL         MI 
    yo corri desesperado,
                          RE             MI
    senti el ardor de una herida abierta,
                      SOL    MI
    
  • e|---------------------
    B|---------------------
    G|---------------------
    D|-2-2-2--2----2-2-2--2     x3 y deja sonar al final
    A|-2-2-2--2----2-2-2---
    E|-0-0-0--0----0-0-0---
             |            |
    
    (Estirando mucho con el wha-wha en los '|')
    
    
                         G      Gb Em                  
    Las garras de un terrible ser,
                 D               Em
    desplumaban un ángel en el cielo,
                   G  Gb Em
    desde aquí lo vi caer,
                D               Em
    hacia el baldío de los misterios,
                 G Gb Em                  
    
  • |-------------------------------------12----------------------------------------
    |-------------------------------------12----------------------------------------
    |---------2b-2b-2b-2b-2b-------------(12)--------------2b-2b-2b-2b-2b-----------
    |-2-2-2-2-------------------2-2-2-2-------------2-2-2------------------2-2-2----
    |-2-2-2-2-------------------2-2-2-2-------------2-2-2------------------2-2-2----
    |-0-0-0-0-------------------0-0-0-0-------------0-0-0------------------0-0-0----
             |full--1/2--1/4|                             |full--1/2--1/4|
    
    Estrofas- distorsión (treble)
    
    |----------------0-------2-2-2-3p2-|<<< así se mete la viola     |---0-----------------------0--------2--2----2p3p2--|
    |----------------0-x-x-x-3---------|    cuando empieza a         |---0-----------------------0--------3----3---------|
    |------------------x-x-x-2---------|    cantar Chizzo, pero      |-----------------------------x-x-x--2-----2--------|
    |-5-----------2----x-x-x-0---------|    el riff principal de     |-2---2------5-5----------2---x-x-x-----------------|
    |-5-----------2----x-x-x-----------|    las estrofas, es este >>>|-2-----2----5-5----------2---x-x-x-----------------|
    |-3--3-2-5-0--0--------------------|                             |-0-------0--3-3-3-2-5-0--0-------------------------|
      \           Em         D                                         E5         G5          E5         D              
       \_____________________
                             \
                              \
    
  •    Estiradas>>                B
       Estirar y bajar>>>         ba
       Slide>>>                   s                
       Sonidos armónicos>>>       <>
       Ligados ascendentes>       h
       Ligados descendentes>      p
       Se mantiene la estirada>   /
    
       INTRO(se toca con wha-wha, mejor si tienen pedal de expresión)
    E  --------------------------12-----------------------------------------*------------------20b--
    B  --------------------------12------------------------------------------------------------19b--
    G  --4-4-4-2baP0----4-4-4-0--12--4-4-4-2b-2b-----4-4-4----4-4-4-2b-2b---------------------------
    D  --2-2-2----------2-2-2-0------2-2-2-----------2-2-2----2-2-2---------------------------------
    A  ---------------------------------------------------------------------------------------------
    E  ---------------------------------------------------------------------------------------------
       Riff 1          Riff 2
    E  ---------------|---------------------------12------------------------------3----------2------
    B  ---------------|---------------------------12------------------------------0----------3------
    G  ---------------|---------------------------12------------------------------0----------2------
    D  ---------------|---------------------------14------------------------------0-0h2---0--0------
    
  • Como prometi cuando subi el bajo de
    “hoy voy a bailar a la nave del olvido”
    aca esta el de “EN EL BALDIO”, esta bien sacado,
    aparte lo controle viendo
    el dvd de “insoportablemente vivo”.
    Hace como 2 años que toco el bajo,
    y mi banda se llama cero absoluto,
    pasen por www.fotolog.net/ceroabsolutorock
    
    INTRO= MI
    
    “Las garras de un temible
      ser………
    G-------------------------------
    D--------------------------5----
    A-----------------3/5--5-7--7-5-
    E-3--33-2-0—-00-5---------------
    
    “desde aquí lo vi caer…
    
    G--------------------------------
    D---------------------------5----
    A------------------3/5--5-7--7-5- x3
    E-0—23-232-0—-00-5---------------
    
    ESTRIBILLO
    *el estribillo se divide en 2 partes:
    
    PARTE 1
    G--------------------------------------
    D---------------------5-----------3----
    A----------3/5-6-7-77—-7-5-3—-3-5—-5-3-
    E-3-3-33-5-----------------------------
    
    PARTE 2
    G------------------------------------------
    D-------------------------5-----------3----
    A-----------3/5-(5)-
  • +
    ¡Colabora con nosotros!
    Envíanos tu versión de esta canción
  • Tutorial
    HD
    EN EL BALDÍO LA RENGA TUTORIAL GUITARRA ACORDES
    5:34

Letra de En el baldío
desplumaban un angel en el cielo
desde aqui lo vi caer
hacia el baldio de los misterios
yo corri desesperado
senti el ardor de una herida abierta
esta el angel ahi tirado
y en sus ojos habló la tristesa
no me mires así
dios me ha hecho para caer
y no sientas pena por mi
talvez vivir cueste el pecado
y si todo lo soñado
lo vive en la realida
es el angel que te cuida el que vas caido aca
riff 1:
riff 2:
(vuelve a empezar)
las espinas del cardo santo
lo abrazaron en su caida
y entre saumerios de basura
el angel aquel se moría
se hunde un vasio a mis espaldas
y sentí que solo me quedaba
en el baldio de los misterios
con ojos tristes que me hablablan
no me mire así...
al final hace lento el riff 1
alguna duda o sugerencia:
eduardo@ibiza-magazine.com




[En el baldío chords][En el baldío cifra]
© LaCuerda.net · aviso legal · privacidad · es · en · pt · contacto