Tablatura para Bajo de la Renga: En el baldío
Conexión · Inscripción
Letras y Acordes
Pantalla Completa
Imprimir
Versión Texto
Añadir Favorito
Otras Versiones

Mostrar Diagramas
Desfile Automático
Formato del Texto


En el baldío(BAJ)

la Renga

calidad:
reng0263
AUTOR: Gustavo F. Nápoli
ALBUM: Insorportablemente Vivo (2000)
Enviado por nicolas
Como prometi cuando subi el bajo de
“hoy voy a bailar a la nave del olvido”
aca esta el de “EN EL BALDIO”, esta bien sacado,
aparte lo controle viendo
el dvd de “insoportablemente vivo”.
Hace como 2 años que toco el bajo,
y mi banda se llama cero absoluto,
pasen por www.fotolog.net/ceroabsolutorock

INTRO= MI

“Las garras de un temible
  ser………
G-------------------------------
D--------------------------5----
A-----------------3/5--5-7--7-5-
E-3--33-2-0—-00-5---------------

“desde aquí lo vi caer…

G--------------------------------
D---------------------------5----
A------------------3/5--5-7--7-5- x3
E-0—23-232-0—-00-5---------------

ESTRIBILLO
*el estribillo se divide en 2 partes:

PARTE 1
G--------------------------------------
D---------------------5-----------3----
A----------3/5-6-7-77—-7-5-3—-3-5—-5-3-
E-3-3-33-5-----------------------------

PARTE 2
G------------------------------------------
D-------------------------5-----------3----
A-----------3/5-(5)-(7)-7—-7-5-3—-3-5—-5-3-
E-3-3-(3)-5--------------------------------


PARTE 1
No me mires así,Dios me ha hecho para caer,
PARTE 1
y no sientas pena por mí,tal vez vivir cueste el pecado,
PARTE 2
y si todo lo soñado,no vive en la realidad,
PARTE 2
es el ángel que te cuida,el que ves caido acá.


G------------------------------------------------------
D-------------------------------------------5----------
A---------------------------------------5-7--7-5-------
E-0—-3-5—7-8/12----12-10-8-78-7-5-33-------------------

“las espinas del cardo santo…
G--------------------------------
D---------------------------5----
A------------------3/5--5-7--7-5- x4
E-0—23-232-0—-00-5---------------
ESTRIBILLO

Igual que antes solo que la parte 2 se repite 3 veces

SOLO DE SAXO

G------------------------------------------
D-------------------------5-----------3----
A-----------3/5-(5)-(7)-7—-7-5-3—-3-5—-5-3- x2
E-3-3-(3)-5--------------------------------

En la parte que acelera la bateria se hace lo sig.:
G------------------------------------
D------------------------------------
A---------55555555-7-7-7777-3-3-3333-
E-3-3-3-3----------------------------

G--------------------------------------------
D--------------------------5----------3------
A----------5-5-5555-7-77-7—-7-5-3-3-5—-5-3---
E-3-3-3333---------------------------------3-

FINAL
G------------------
D------------------
A-10—-10-9-12-10-7- x2
E------------------

el tema es facl solamente hay que escucharlo.
Este fichero es trabajo propio de su transcriptor y representa su interpretación personal de la canción. El material contenido en esta página es
para exclusivo uso privado, por lo que se prohibe su reproducción o retransmisión, así como su uso para fines comerciales.
© LaCuerda.net · Aviso Legal · Privacidad