Acordes de Guitarra » R »la Renga » Balada Del Diablo Y La Muerte (Tab)

Balada Del Diablo Y La Muerte
la Renga

Letras, Acordes y Tabs para Guitarra, Bajo y Ukulele

  • Intro: Em - G - D - A  x4
    
               Em           G
    Estaba el diablo mal parado
              D          A
    En la esquina de mi barrio
            Em              G
    Ahi en donde dobla el viento
           D            A
    Y se cruza en los atajos.
    
    Al lado de él estaba la muerte
    Con una botella en la mano
    Me miraban de reojo
    Y se reían por lo bajo
    
    Y yo que esperaba no se a quien
    Al otro lado de la calle del otoño
    una noche de bufanda
    Que me encontro desvelado.
    
  •   MIm       SOL           REsus4 LA
    e|-----0---------------------3s2------------|
    b|-----0---------------------3---2----------|
    g|-----0-------------------2-2---2----------|  X 4
    d|-------------0-0h2p0---0-------2-0h2p0----|
    a|---2---2p0-----------2---------0-------2p0|
    E|-0---------3------------------------------|
    
               MIm          SOL
    Estaba el diablo mal parado
              RE        LA
    en la esquina de mi barrio
         MIm             SOL
    Ahí donde dobla el viento
          RE           LA
    y se cruzan los atajos.
    
             MIm              SOL
    Al lado de el estaba la muerte
              RE           LA
    
  • INTRO:  Em  G  D  A  x4
    
                Em                         G
    Estaba el diablo mal parado en la esquina de mi barrio 
          D                            A
    ahi donde dobla el viento y se cruzan los atajos.  
    Al lado de él estaba la muerte,  
    con una botella en la mano me miraban de reojo 
    y se reían por lo bajo.  
    
    Y yo que esperaba no sé a quién,  
    al otro lado de la calle del otoño 
    una noche de bufanda que me encontró desvelado,  
            Em              G            D  A            B
    entre dientes oí a la muerte que decía, que decía así:  
    
              A                   C
    Cuántas veces se habrá escapado,  
           G            D
    como laucha por tirante 
    
  •     MIm    SOL              RE            LA
    e|-----0------------------------3p2-------------------------|
    B|-----0-------------------3-3--3------3--2-2--2------------|
    G|-----0-------------------2-2------------2-2--2--2p0-------|X4  pero en la ultima deja el LA 
    D|-----2---------2p0-------0-0-------0----2-2--2------2p0---|         sonando
    A|---2----------------2-------------------0-0--0------------|
    E|-0-----0-2-3-3--------------------------------------------|
    
    BAJO:        MI      SOL        RE        LA                MI     SOL         RE        LA
    G|------|--|------------------------------------------|--|-----------------------------------|
    D|---#--|X1|------------2p0----------#----------------|X2|------------2p0------------#-------|
    A|------|--|----------------2-/-(5)-5---5-------------|--|-----------------2-/-(5)-5---5-----|
    E|------|--|(0)-0-2-(3)-------------------5-5-6-5-3-0-|--|(0)-0-2-(3)--------------------(5)-|
    
    
    VERSO1: 
    
        MIm    SOL              RE            LA
    e|-----0------------------------3p2-------------------------|
    B|-----0-------------------3-3--3------3--2-2--2------------|
    
  •     Em         G             D          A
    e:-------------------------------3-2-------------------- |
    B:------0------------------------3-3----2--------------- |
    G:------0----------------------2-2-2----2---------------°|
    D:----2----------0-0a2d0---0-0----------2---------------°|
    A:-----------------------2------------0----0-0a2d0------ |
    E:--0------0-2-3-----------------------------------3-2-- |
    
    
            Em             G
    Estaba el Diablo mal parado
              D        A
    en la esquina de mi barrio,
           Em            G
    ahí donde dobla el viento
          D           A
    y se cruzan los atajos
    
    
           Em             G
    
  • Este es mi primer solo asi largo y jodido, asi que posiblemente 
    tenga partes mal...si descubris
    que esta mal, mandame un mail y decime, ok?
    Para facilitar el tiempo, lo separe en partes
    
    e|---------------------------------------|
    B|-----12b--12-10-9---10-9-10/(deslizar)-|
    G|--9------------------------------------|
    D|---------------------------------------|
    A|---------------------------------------|
    E|---------------------------------------|
    
                                               muy rapido
                                          /----------------\
    e|--6----------5----------4-------------------2---------|
    B|----5-4-3h4----4-3-2h3----3-2-1h2---1h2-1h2---2-1h2p0-|
    G|------------------------------------------------------|
    D|------------------------------------------------------|
    A|------------------------------------------------------|
    E|------------------------------------------------------|
    
    e|-----------------------8b---------------------10-----------|
    B|--5-5-
  • Tal vez, les guste escuchar una historia:
    La historia de la esquina
    
    2:25 (3:18)
    e|----------------------|-------------|--------------|»
    B|-10\--17~~~-10~--17\--|-15--13--15~-|-13--12--13~--|»
    G|----------------------|-------------|--------------|»
    D|----------------------|-------------|--------------|»
    A|----------------------|-------------|--------------|»
    E|----------------------|-------------|--------------|»
    
    «|---------------------------------------------------------|
    «|-----12------------14-------12----------12-------12------|
    «|-14------12~---10------14~------12--10------14-------12--|
    «|---------------------------------------------------------|
    «|---------------------------------------------------------|
    «|---------------------------------------------------------|
    
    2:40 (3:34)
    e|-------------------------------------------|
    B|-------------------------------------------|
    G|--10--12--14\--10--12--14~--12~--10~--12~--|
    D|------------------------
  • INTRO
    
    El bajo entra despues de dos compaces
    
    G-----------------------------------------------
    D--------4-5-5--7-5-4----------5-7-7-5-7-5------
    A--7---7--------------7-5----7-------------7----
    E-----------------------------------------------
    
    G-----------------------------------------------
    D--------4-5-5--7-5-4----------5-7-(DEJAR SONAR)
    A--7---7--------------7-5----7------------------
    E-----------------------------------------------
    
    VERSO 1
    G-----------------------------------------------
    D--------4-5-5--7-5-4----------5-7-7-5-7-5------
    A--7---7--------------7-5----7-------------7----  x7
    E-----------------------------------------------
    
    "que decia asi, ah ah aaaah"
    G-----------------------------------------------
    D-----------------------------------------------
    A--2-2-2-2-2-2-2-2-2--2-2-2-2-2-2-2-2-2---------
    E-----------------------------------------------
    
    VERSO 2
    G-----------------------------------------------
    D-----------------------------------------------
    A--------2-3-3--5-3
  • Armonica en RE Mayor
    SOLOS PRINCIPALES
    INTRO (Comienzo)
    Primer solo
    (1)b (1)b (1) (2) larga -
    (1)b (1)b (1) (2) 4 3 -
    
    ANTES DE: '...Y temblando como una hoja...'
    (1)b (1)b (1) (2) 4 3 (4) -
    
    '...Y bajo un arbol del otoño...'; 3 4 3 esta ultima nota larguisima, 
    y sigue, 3 4 - 3 4 - (3) (2) (2) las dos arrastraando hacia los graves. 
    
    '... Sus triunfos y sus fracasos...' ; (1)b (1)b (1) (2) 4 3 - (dos veces)
    '... En la esquina ........ ... de mi barrio...' ; (5) larga con TREMOLO. 
    sigue; (5) 5 (5) 5 (4) esta ultima con tremolo. 
    (TREMOLO: es un movimiento rápido de izquierda a derecha, o al reves.
    Inmediatamente comienza el solo largo y final; desde el final de 
    '... de la esquina de mi barrio...' ;
    
    Primera vuelta de solo
    (4) 5 (5) 5 (4) - (4) 5 (5) 6 (6) 7 (6) 6 (5) 5 (4) 6 5 - 5 (5) 6 (6) (6) -
    Seguna vuelta de solo
    (4) 5 (5) 5 (4) - (4) 5 (5) 5 (4) - (4) 5 (5) (4) 5 5 (5) 5 (4) con tremolo -
    Tercera vuelta de solo
    (4) 5 (5) 5 (4) - (4) (5) 6 5 6 7 - 5 6 
  • +
    ¡Colabora con nosotros!
    Envíanos tu versión de esta canción
  • Tutorial
    HD
    Como Tocar el Solo de La Balada Del Diablo y La Muerte - La Renga - Tutorial de Guitarra Electrica
    16:33
  • Tutorial
    HD
    Aprender como tocar La Balada del Diablo y la Muerte (La Renga)
    en guitarra acordes notas TCDG
    11:40
  • Tutorial
    HD
    Como tocar la Balada del Diablo y la Muerte de La Renga - Rock Nacional
    16:08

Letra de Balada Del Diablo Y La Muerte
Estaba el diablo mal parado en la esquina de mi barrio
ahi donde dobla el viento y se cruzan los atajos.
Al lado de él estaba la muerte,
con una botella en la mano me miraban de reojo
y se reían por lo bajo.
Y yo que esperaba no sé a quién,
al otro lado de la calle del otoño
una noche de bufanda que me encontró desvelado,
entre dientes oí a la muerte que decía, que decía así:
Cuántas veces se habrá escapado,
como laucha por tirante
y esta noche que no cuesta nada, ni siquiera fatigarme,
podemos llevarnos un cordero, con solo cruzar la calle.
Yo me escondí tras la niebla y miré al infinito,
a ver si llegaba ese que nunca iba a venir.
Estaba el diablo mal parado en la esquina de mi barrio,
al lado de él estaba la muerte,
con una botella en la mano.
Y temblando como una hoja,
me crucé para encararlos,
y les dije, me parece que esta vez
me dejaron bien plantado.
Les pedí fuego y del bolsillo
saqué una rama pa'convidarlos
y bajo un árbol del otoño
nos quedamos chamuyando,
me contaron de sus vidas,
sus triunfos y sus fracasos,
de que el mundo andaba loco
y hasta el cielo fué comprado
y más miedo que ellos dos,
me daba el propio ser humano.
Y yo ya no esperaba a nadie,
y entre las risas del aquelarre
el diablo y la muerte se me fueron amigando,
ahí donde dobla el viento y se cruzan los atajos,
ahí donde brinda la vida en la esquina de mi barrio.




[Balada Del Diablo Y La Muerte chords][Balada Del Diablo Y La Muerte cifra]
© LaCuerda.net · aviso legal · privacidad · es · en · pt · contacto