Acordes de Guitarra » R »la Renga » La Razón Que Te Demora (Tab)

La Razón Que Te Demora
la Renga

Letras, Acordes y Tabs para Guitarra, Bajo y Ukulele

  • Intro: Bm - D - G - D
    
    Bm                  D
    Hay un destino que no tiene pruebas
    G            D
    Por eso ésta historia
    Bm                  D
    Puede que muera con una verdad
    G            D
    Olvidada en tu memoria
    F#9                  A9
    Será un camino que no tiene huella
    F#9                    Bm
    La suerte que le ha tocado a la estrella
    G      D      F#9
    que te ha de guiar
    
    Hay un siempre para la batalla
    Y la razón que te demora
    Si hay una sombra para cada luz
    
  • Bm                      D                G          D
    Hay un destino que no tiene pruebas por eso esta historia
    Bm                    D             G            D
    Puede que muera con una verdad olvidada en tu memoria
    F#(*)                  A
    será un camino que no tiene huella 
    F#(*)                    Bm
    la suerte que le ha tocado a la estrella
    G       D       F#(*)
    que te ha de mirar
    Bm                     D                G             D
    Hay un siempre para la batalla y la razón que te demora
    Bm                   D          G           D
    y hay una sombra para cada luz corras adonde corras 
    F#(*)                    A
    quizá el destino sea una mentira
    F#(*)                   Bm           G
    quizá lo único que quería la vida era 
    D            F#(*)
    terminar con vos
    
  • Bm                       D
    hay un destino que no tiene pruebas
         G   D
    por eso esta historia
                         D
    puede que muera con una verdad
       G        D
    olvidada en su memoria
      F#                     A
    sera un camino que no tiene huella
     F#                           G
    la suerte que le a tocado a la estrella
      D               D G A
    que te a de guiar
      B5                      D5
    habra un siempre para la batala
           G5          D5   D5 C#5 B5
    y la razon que te demora
                 B5            D5
    si hay una sombra para cada luz
    
  •  Bm         D          G         D
    1 -----2------------2^3^2-------3-------------2^3^2----------------
    2 -------3--------3-------3-------0---------3-------3--------------
    3 ---------4----2-------------------0-----2------------------------
    4 ---4--------0-------------------------0--------------------------
    5 -2--------------------------2------------------------------------
    6 --------------------------3------------------------------X3------
    RIFF 2
      F#m     A       F#m     Bm       G         D
    1 --------------------------------2-----------3------------2^3^2---
    2 -----2---------2---------2--------3-----------0--------3-------3-
    3 -----2---------2---------2----------4-----------0----2-----------
    4 -----4---------2---------4----4--------------------0-------------
    5 ---4---------0---------4----2-------------0----------------------
    6 -2------0--0------0--2------------------3------------------------
       F#m
    1 -----------------------------------------------------------------
    2 ---------2-2--------2-2------------------------------------------
    3 ---------2-2--------2-2------------------------------------------
    4 --4----4-4-4--4---4-4-4------------------------------------------
    
  • INREO:RESIm (REREus4)) Re SOL (Re(sus4)) Re)
    
    O con arpegio:
    
      RE  RE    SIm       (REREus4)) Re         SOL     (Re(sus4)) Re
    1º[mi |-------2-----|-------3h2-------|-------2-|-------3h2-------|
    2º[Si |---------3---|-----3-----3-----|-----0---|-----3-----3-----|
    3º[Sol|-----4-----4-|---2---------2---|---------|---2---------2---|
    4º[Re |---4---------|-0-------------0-|---------|-0-------------0-|
    5º[La |-2-----------|-----------------|---2-----|-----------------|
    6º[Mi |-------------|-----------------|-3-------|-----------------|
    
                                              SOL
                                 1º/ mi |-------2---------|
           Esta es otra manera   2º/ Si |---------0-------|
            de tocar la parte    3º/ Sol|-----------0-----|
             arpegiada de SOL,   4º/ RE |-----0-------(0)-|
             para que quede a    5º/ La |---2-------------|
                  tiempo.        6º/ MI |-3---------------|
    
    
  • Solo de 'La Razon que te Demora'
    --------------------------------
    PD: El solo es sacado de oido, puede tener errores. Este es un buen comienzo para ir perfeccionandola.
    
    
    e|--------------------------------------------------------------------------------
    b|--7----------10s12--10p12--10--12--12--10--12-10--7--7s9------------------------
    g|--9/--9/--7-----------9p11------------------------------------------------------
    d|--------------------------------------------------------------------------------
    a|--------------------------------------------------------------------------------
    E|--------------------------------------------------------------------------------
    
    e|--------------------------------------------------------------------------------
    b|-2s7--6--5--3--5--3--5h--5h--5h/--5--3--0---------------------------------------
    g|------------------------------------------3p5p3--0-------3----------------------
    d|-----------------------------------------------3p5p--0---3------
  • SOLO
    
    1 -----------------------------------------------------------------------
    2 --------------10^(12)^10p8----------------s10--12-12-12-12--10--12--10-
    3 -7/(8)--9-7----------------9^(11)p7---7v-------------------------------
    4 -7/(8)------------------------------9----------------------------------
    5 -----------------------------------------------------------------------
    6 -----------------------------------------------------------------------
    
    1 --------------------------------5----------------------------------------
    2 -7v-10--2s7-7-7--6-5-3-5-3--5/(7)--5^(7)^5^(7)^5-------------------------
    3 --------------------------------------------------s7-----------------s7v-
    4 -----------------------------------------------------9-7-9p7------------9
    5 -------------------------------------------------------------7p5-7p5-----
    6 -------------------------------------------------------------------------
    
    1 ---------------------------7h9h10p9p7-10s12--10h12p9v-----------
    2 ------------7h8h10p8p7h
  • La línea de bajo comienza después de la introducción de guitarra y voz. 
    Se mantiene en volumen bajo durante el resto de la canción.
    
    Durante el tema se van alternando estos tres únicos 'Riffs'...
    
    Más abajo se detalla el órden...
    
    RIFF 1
    
    G |------------------------------------------
    D |------------0--0-0--0---------------------
    A |--2--2-2--2---------------------5--5-5-4--
    E |----------------------3--3-3--3-----------
    
    
    RIFF 2
    
    G |-------------------------------------------------------------------------------------------
    D |-------------------------------------------------------------------------------------------
    A |------------0--0-0--0-----------2--2-2--2-----------5--5-5--5------------------------------
    E |--2--2-2--2-----------2--2-2--2-----------3--3-3--3------------2-2--2-2-2--2-2-2--2-2-2-2--
    
    
    RIFF 3 (FUNCIONA COMO PUENTE Y PARA FINAL SE TOCA TRES VECES)
    
    G |---------------------------------------------------------------
    D |------------------
  •       _____________________________________
         /
    +---+---------------------------------------+---+
    |   | 1 | 2 | 3 | 4 | 5 | 6 | 7 | 8 | 9 | 10| C |
    +---+---------------------------------------+---+
          _____________________________________/
    
    Hay un destino que no tiene pruevas por eso esta historia
    (8) 8 (8) 8 (8) 8 (8) 8  8  8  8     8  9  8  8 (8)(8)(7)
    puede que muera con una verdad olvidada en tu memoria
    (8) 8 (8) 8 (8) 8 (8) 8  8  8     8  9  9  8  8 (8)(8)(7)
    sera un camino que no tiene huella
    (7)(7)(7)(7)(7)(7)(7)(8)(8)(8)(8)
    la suerte que le ha tocado a la estrella que te ha de mirar
    (7)(7)(7)(7)(7)(7)(7) 8 (8)(7)(6) 6     8 (8)(7)(7)(7)
    
    
    Hay un siempre para la batalla y la razon que te demora
     8 (8) 8 (8) 8 (8) 8  8  8  8     8  8  9  8  8 (8)(8)(7)
    y hay una sombra para cada luz corras a donde corras
     8  8  8  8  8  8  8  9  9  9     9  9  8  8 (8)(8)(7)
    quizas el destino sea una mentira
    (7)(7)(7)(7)(7)(7)(7)(8)(8)(8)(8)
    quizas lo unico que queria la vida era terminar c
  • +
    ¡Colabora con nosotros!
    Envíanos tu versión de esta canción
  • Tutorial
    como tocar el solo de la razon que te demora
    4:36

Letra de La Razón Que Te Demora
Hay un destino que no tiene pruebas
Por eso ésta historia
Puede que muera con una verdad
Olvidada en tu memoria
Será un camino que no tiene huella
La suerte que le ha tocado a la estrella
que te ha de guiar
Hay un siempre para la batalla
Y la razón que te demora
Si hay una sombra para cada luz
Corras a donde corras
Quizá el destino sea una mentira
Quizá lo único que quería la vida
Era terminar con vos
[ D5 ] x2
La ruta sigue más allá
De las luces de la autopista
Secando al ojo de la lágrima
Te perderás de vista
Como un relámpago en la fría noche
Cruzarás los abismos
Esos que guardan a la sombra
Que te ocultan de vos mismo
Hay algo extraño en el otro lado
Que te teme y te dá la mano
Para llegar hasta vos
Hay un destino que no tiene pruebas
Por eso ésta historia
Puede que muera con una verdad
Olvidada en tu memoria
Será un camino que no tiene huella
La suerte que le ha tocado a la estrella
que te ha de guiar
Habrá un siempre para la batalla
Y la razón que te demora
Si hay una sombra para cada luz
Corras a donde corras
Quizá el destino sea una mentira
Quizá lo único que quería la vida
Era terminar con vos




[La Razón Que Te Demora chords][La Razón Que Te Demora cifra]
© LaCuerda.net · aviso legal · privacidad · es · en · pt · contacto