Acordes de Guitarra » R »la Renga » El Revelde (Tab)

El Revelde
la Renga

Letras, Acordes y Tabs para Guitarra, Bajo y Ukulele

  •                      E
    Soy el que nunca aprendió,desde que nació
                B
    cómo debe vivir el humano,llegué tarde,
         A                                  E
    al sistema,ya estaba enchufado,así funcionando.
    
                       E
    Siempre que haya reunión,será mi opinión
                B
    la que en familia desate algún bardo
               A
    no puedo acotar, está siempre mal
                 E
    la vida que amo.
    
         A                                        E
    Caminito al costado del mundo,por ahí he de andar
                                            B
    buscándome un rumbo,ser socio de esta sociedad
    
  • -----------------------------------------
    
    VERSO 1:
                      MI7
    Soy el nunca aprendió
    
    desde que nació
                SI7
    como debe vivir el humano
    LA7
    llegué tarde al sistema ya estaba enchufado
              MI7
    así funcionando.
    
    
    VERSO 2:
                         MI7
    Siempre que haya reunión
    
    será mi opinión
    
  • Esta es mi transcripción del solo de saxo de El Rebelde
    pasado a guitarra. Creo que suena bastante bien. Espero
    que les sirva. Saludos y aguante La Renga!!
    
    E|-------------------------|-------------------------|
    B|-------------------------|-------------------------|
    G|-------------------9-----|-------12----------12/14-|
    D|-9--9--12----9--9--------|-9--9--------9-----------|
    A|-------------------------|-------------------------|
    E|-------------------------|-------------------------|
    
    E|-------------------------|-------------------------|
    B|-------------------------|-------------------------|
    G|-------12/14-------12----|-14----------------------|
    D|-------------------------|-------------------------|
    A|-------------------------|-------------------------|
    E|-------------------------|-------------------------|
    
    E|-------------------------|-------------------------|
    B|-------------------------|-------------------------|
    G|-------12----14----14/15|14-----12----------------|
    D|-14-----------
  • Canto:
              E                  B
    G|------------------|------------------|
    D|-2-2-2-2--2-2-2-2-|------------------|
    A|------------------|-2-2-2-2--2-2-2-2-|
    E|------------------|------------------|
                      x2                  x2
    
              A                  E
    G|------------------|------------------|
    D|------------------|-2-2-2-2--2-2-2-2-|
    A|-0-0-0-0--0-0-0-0-|------------------|
    E|------------------|------------------|
                      x2                  x2
    
    Estribillo:
    
              A                  E
    G|------------------|------------------|
    D|------------------|-2-2-2-2--2-2-2-2-|
    A|-0-0-0-0--0-0-0-0-|------------------|
    E|------------------|------------------|
                      x2                  x2
    
              B                  A                  E
    G|------------------|------------------|------------------|
    D|------------------|------------------|-2-2-2-2--2-2-2-2-|
    A|-2-2-2-2--2-2-2-2-|-0-0-0-0--0-0-0-0-|------------------|
    E|---------
  • Esto es lo que hace el bajo 
    
    1) Durante la canción:
     
    Simbolo:  * dos toques rápidos de púa entre las dos notas
    
      E            B 	   A	
    G------------|-----------|----------|
    D------*-----|-----------|----------|
    A-5-7-5-7----|------*----|------*---|
    E------------|-5-7-5-7---|-3-5-3-5--|
          
    2) En el estribillo:                 
    
      E
    G------------------|
    D------------------|
    A--*---*---*---*---|
    E-0-0-4-4-7-7-4-4--|
    
    
    
      B
    G--------------------|
    D--------*------*----|
    A--*----6-6-9-9-6-6--|
    E-7-7----------------|
    
    
    
      A
    G--------------------|
    D--------*--*--*-----|
    A--*---4-4-7-7-4-4---|
    E-5-5----------------|
    
    
    3) Final:                                                
    
    
    
    G---------------------------*--*--*------------|
    D----------------------*--6-6-7-7-8-8-9--------|
    A-----6---------4-----7-7----------------------|
    E-7-7---7-6-5-5---5-5-------------------3-0----|
    
    Espero que les serva de algo proximamente el bajo 
    de 'Se viene' de 
  • versos       (3) 4 (3) 4 (3) 4 (4) , (3) 4 (3) 4 (4)
                 6 6 6 6 9b 9b , 9b 9b 5 (4)
    
                 variacion 1 = 5 (4) 5 5 (4) 5 5 , (4) 5 5 5 6 6 , 4 4 4 (3) (5) 3
    
                 variacion 2 = (4) 5 5 (4) 5 , (4) 5 5 5 6 , 4 4 4 (3) (5) 3
    
                 variacion 3 = (4) 5 (4) 5 , (4) 5 5 5 6 , 6 (5) 6 5 , 4 4 4 (3) (5) 3
    
                 variacion 4 = 5 (4) 5 , (4) 5 5 5 6 , 4 4 4 (3) (5) 3
    
                 variacion 5 = 5 (4) 5 5 (4) 5 , (4) 5 5 5 6 6 , 4 4 (3) (5) 3
    
                 variacion 6 = (4) 5 (4) 5 5 , 5 5 5 6 , 4 4 4 4 (3) (5) 3
    
    
    
    estribillo   (4) (4) 5 5 (4) 5 (4) 5 6 , 5 (4) 5 (4) 5 6
                 (4) 5 (4) 5 6 6 , (4) 5 5 (4) (2)b (2)b 6 (4)
                 (3) 4 4 (3) 3
    
                               _________________
                              /  Armonica en C  \
                             /___________________\
                             |_|_|_|_|_|_|_|_|_|_|
                             ¯¯¯¯¯¯¯¯¯¯¯¯¯¯¯¯¯¯¯¯¯
  • +
    ¡Colabora con nosotros!
    Envíanos tu versión de esta canción

Letra de El Revelde
Soy el que nunca aprendió,desde que nació
cómo debe vivir el humano,llegué tarde,
al sistema,ya estaba enchufado,así funcionando.
Siempre que haya reunión,será mi opinión
la que en familia desate algún bardo
no puedo acotar, está siempre mal
la vida que amo.
Caminito al costado del mundo,por ahí he de andar
buscándome un rumbo,ser socio de esta sociedad
me puede matar.
Y me gusta el rock, el maldito rock
siempre me lleva el diablo, no tengo religión
quizá éste no era mi lugar,pero tuve que nacer igual.
No me convence ningún tipo de política
ni el demócrata, ni el fascista
porque me tocó ser así,ni siquiera anarquista.
Caminito al costado del mundo,por ahí he de andar
buscándome un rumbo,ser socio de esta sociedad
me puede matar.
Yo veo todo al revés, no veo como usted
yo no veo justicia, sólo miseria y hambre
o será que soy yo que llevo la contra
como estandarte.
Perdónenme pero soy así soy, yo no sé por qué
se que hay otros también,es que alguien debía de serlo,
que prefiera la rebelión,a vivir padeciendo
Caminito al costado del mundo,por ahí he de andar
buscándome un rumbo,ser socio de esta sociedad X2
me puede matar.
TERMINA EN E
CUALQUIER DUDA AGREGUEN NICO.25RNR@HOTMAIL.COM
AGUANTE LA RENGA!




[El Revelde chords][El Revelde cifra]
© LaCuerda.net · aviso legal · privacidad · es · en · pt · contacto
DINAMICO