Acordes de Guitarra » R »la Renga » Cuando estes acá (Tab)

Cuando estes acá
la Renga

Letras, Acordes y Tabs para Guitarra, Bajo y Ukulele

  •               Am                C Am 
    Cuando estés acá, tendrás tu espacio
     G                         Am
    y una frágil forma de existir
               Am                    C    Am
    con verte nacer  como hay quien puede ver
     G                  Am
    un mundo para destruir?
                 Am                     C Am
    Ojos que no ven, corazones que no sienten
     G                   Am
    y vos que estas por venir.
    
    
    G                          Am
    A cada instante habrá una flor
    G                           Am
    y en cada flor habrá un instante
    G                      Am
    en que la vida se desnude
    
  • Buenas!
    Aquí les dejo el solo de la canción...
    Se usa fundamentalmente la escala menor pentatónica de LA
    
    
    e|----------|
    b|--1~--1~--|
    g|--2~--2~--|
    d|--2~--2~--|
    a|--0~--0~--|
    E|----------|
    
                                                               Palm mute
    e|-----------------------------------------------------|------------------
    b|-----------------------------------------------------|------------------
    g|--5--7-------5---------------------------------------|------------------
    d|--------5h7-----7--7p5--7----------------------------|------------------
    a|------------------------------5--7p5-----5-----------|--------------3---
    E|---------------------------8----------8-----8--8--5--|--0--3--4--5-----5
    
    
    e|-------------------------------------------------------------------------
    b|-------------------------------------------------------------------------
    g|-5-------7b8-7p5-------5h7--5----8p5-7p5--8p5-7p5-----8p5-7p5-----8p5-7p5
    d|---7-5-7---------7-7-7--------7--------------------7--
  •                   LAm                 DO           LAm
    e|-------7-8--10-12-(12)--|------7-8--(7)------8-8--(8)|
    B|--10--------------------|-10------------10-----------|
    G|------------------------|----------------------------|
    D|------------------------|----------------------------|
    A|------------------------|----------------------------|
    E|------------------------|----------------------------|
    
    
         SOL                     LAm
    e|----------------8---7-------------|
    B|--10--(8)-8--8--------10--(10)----|
    G|----------------------------------|
    D|----------------------------------|
    A|----------------------------------|
    E|----------------------------------|
    
    
    
    e|----7--8-10--(12)--11-12-11-12-11-12--|
    
  • Bueno esta es mi primer transcripcion y aca les tengo este Solo que esta mucho mejor...esta casi perfecto.
    Espero que les sirva !!
    
    
    
    1--------------------------------------------|--------------------------------|
    2--------------------------------------------|---------------------------6----|
    3---5-7--------------------------------------|--7-5-----5-7b-7-5-----7-5-5b-5-|
    4--------5-5-7--7-5-7-7----------------------|------7-7----------7-7----------|
    5------------------------5-7--5-7-5----------|--------------------------------|
    6------------------------------------7-5~~~~-|--------------------------------|
    
    
    1-----------------------------------------------|-------------------------------------------------------0-------------------|
    2-----------------------------------------------|-----8--8--8-8888---------------------16-17-17br-20-17-17b--16br-16-14-----|
    3--9p7-8p7-9p7-8p7-----9p7-8p7-----9p7-8p7------|--7s99-99-99-999999-s-19-19-17--17s19-------------------------------
  • Introducción:
    
           A/C             G
    G|---------------|------------|
    D|---------------|------------|
    A|-0--0--3-0--0--|-------0--0-|
    E|---------------|-3--3-------| x2
    
    Primera Estrofa: IGUAL A LA INTRODUCCION PERO SE REPITE 
    3 VECES
    
    Estribillo:
    
            G             A
    G|-------------|-------------|
    D|-------------|-------------|
    A|-------------|-0--0---0--0-|
    E|-3--3---3--3-|-------------| x3
    
            G             F
    G|-------------|-------------|
    D|-------------|-------------|
    A|-------------|-------------|
    E|-3--3---3--3-|-1--1---1--1-|
    
    Segunda Estrofa: IGUAL A LA PRIMERA ESTROFA
    ---------------------------------------------
    Estribillo
    ---------------------------------------------
    Despues viene esto:
    
              A
    G|------------------|
    D|------------------|
    A|--0n---------0n---|
    E|------------------|   n=nota larga
    ---------------------------------------------
    Solo de guitarra sobre:
    
            G             A
    G|-------------|-------------
  •     Intro
    
            A -  C  -  A            G  - A
                              |
    D-------------------------|-----------------------
    G-------------------------|-----------------------
    B-----------0h3~----0-3-0-|------------------0-3-0
    E--5---55---------5-------|-3---33---3h5---55-----    X 2
    
      Verso
    
            A -  C  -  A            G  - A
                              |
    D-------------------------|-----------------------
    G-------------------------|-----------------------
    B-----------0h3~----0-3-0-|------------------0-3-0
    E--5---55---------5-------|-3---33---3h5---55-----
            A -  C  -  A            G  - A
                              |
    D-------------------------|-----------------------
    G-------------------------|-----------------------
    B-----------0h3~----0-3-0-|------------------0-3-0
    E--5---55---------5-------|-3---33---3h5---55-----
            A -  C  -  A            G  - A
                              |
    D-------------------------|-----------------------
    G-------------------------|--------------
  • 1.- CUANDO ESTES ACA
    
    (Armonica de SOL)
    
    C.D. La Renga
    
    SOLO DE LA INTRODUCCION
    
    A) (4) 5 (5) 6 (6)bend (6)bend *stop 
    
    (4) 5 (5) 5<nota larga (5)
    
    5 (5) 5 - (4) 4 4 (4) (4) (4) 
    
    B) (4) 5 (5) 6 (6)bend (6)bend (6)bend 
    
    (6)bend 7 8 (8)
    
    (8) 7 6 * (5) 5 (5) 5 (5) 5 (4) 
    
    *las notas con bend, se tocan pronunciando, 
    
    'tuí-tuí' aspirando
    
    FIN
  • La transcripcion anterior tenia algunas fallas y ademas
    le falto toda la parte del medio y el solo del final.
    
    Armonica en G (Sol)
    
     4  = nota soplada
    (4) = nota aspirada
     b  = bend (en cada caso se indica que se debe pronunciar)
    <(4)b(5)> Alternar rapidamente esas dos notas, con bend.
    
    SOLO DE LA INTRODUCCION
    
    (4) 5 (5) 6 (6b)wa (6b)wa
    (4) 5 (5) 5 largo... (5)largo..
    5 (5) 5 - 5 (4) 4 4 (4) (4)
    (4) 5 (5) 6 (6b)uuuoo (6b)uuuoo (6b)uuuoo
    
    (6b)uo 7 (8)largo..
    
    (8) 7 6 (5) 5 (5) 5 (5) 5 (4)
    
    1º ESTRIBILLO:
    "A cada instante habrá una flor..."
    (6b)eeu (6b)eeu (6b)eeu (6) 7 largo...
    
    "...y en cada flor habra un instante..."
    <(5)b(6)> (6b) 6 (5) 5 (4)
    
    "...en que la vida se desnude..."
    4(4)5(5)6(6b)(6b)
    
    2º ESTRIBILLO:
    "A cada instante habrá una flor..."
    (6b)eeu (6b)eeu (6b)eeu (6) 7 largo...
    
    "...y en cada flor habra un instante..."
    <(5)b(6)> (6b) 6 (5) 5 (4)
    
    "...en que la vida se desnude..."
    (6b) 7 (6) 6 (5) (4b) (4b) (4b) (4b)
    
    3º ESTRIBILLO:
    "A cada instante habrá
  • +
    ¡Colabora con nosotros!
    Envíanos tu versión de esta canción

Letra de Cuando estes acá
Cuando estés acá, tendrás tu espacio
y una frágil forma de existir
con verte nacer como hay quien puede ver
un mundo para destruir?
Ojos que no ven, corazones que no sienten
y vos que estas por venir.
A cada instante habrá una flor
y en cada flor habrá un instante
en que la vida se desnude
ante esos ojos necios.
Cuando estés acá, tendrás tu tiempo
el mismo que no tiene fin
en un mundo así, donde este tu lugar
quién puede el agua pudrir?
Ojos que no ven, corazones que no sienten
y vos que estás por venir.
Cuando estés acá tendrás tu espacio,
tu tiempo y algo por qué luchar
al verte crecer y hacerte fuerte
quién más le puede temer?
A esos ojos que no ven, corazones que no sienten
si vos estás acá.




[Cuando estes acá chords][Cuando estes acá cifra]
© LaCuerda.net · aviso legal · privacidad · es · en · pt · contacto