Acordes de Guitarra » R »la Renga » Balada del diablo y de la muerte (Tab)

Balada del diablo y de la muerte
la Renga

Letras, Acordes y Tabs para Guitarra, Bajo y Ukulele

  • Intro:(MIm SOL RE LA7) x4
    
                   MIm             SOL
    Estaba el diablo mal parado 
                 RE            LA7
    en la esquina de mi barrio
          MIm                SOL
    Ahí donde dobla el viento
              RE            LA7
    y se cruzan los atajos.
    
                MIm                 SOL
    Al lado de el estaba la muerte
                    RE           LA7
    con una botella en la mano,
             MIm           SOL
    me miraba de reojo 
              RE         LA7
    y se reían por lo bajo.
    
    
  • aca lo tienen bien sacado,
    
    ----------------------------12/----------------------------------
    ---12~~-12-10p8-10~~--8-7-8-------5---------5~~--5-3---------3~~-
    -9----------------------------------2b3-2p0----------2b3-2p0-----
    -----------------------------------------------------------------
    -----------------------------------------------------------------
    -----------------------------------------------------------------
    
    -----------------------------------------------------10----------
    -3--------------------------------------8-8~~--10b12----10b12~~--
    ---2b3-2p0-2~~-0-2-0-2b3--2-0-2/0---7/9--------------------------
    -----------------------------------------------------------------
    -----------------------------------------------------------------
    -----------------------------------------------------------------
    
    ----------------------10-----------
    -10--10p8--10---8-7-8----8-7-8-7---
    -----------------------------------
    -----------------------------------
    ----------------------------------
  • Intro: (Em G D A) x2
    
    A partir de la segunda secuencia de notas empieza la armónica:
       Em         G          D A    Em         G      D         A
    e|----------------------------|----------------10------------------------|
    B|-3/5-5-5h3--8b10-10-10-10h8-|-3/5-5h3-10b12-----10--8h7-8-10-----------|
    G|----------------------------|------------------------------------------|
    D|----------------------------|------------------------------------------|
    A|----------------------------|------------------------------------------|
    E|----------------------------|------------------------------------------|
    
    1)_
              Em            G
    Estaba el diablo mal parado
              D            A
    en la esquina de mi barrio,
        Em              G
    ahi donde dobla el viento
         D            A
    y se cruzan los atajos.
    
  • HOLA QUE TAL ACA DEJO EL SOLO DE LA BALADA...
    LO DEJO PORQ PASA LO MISMO Q CON EL DE LA RAZON HAY MUCHOS
    PERO NO SUENAN MUI BIEN...
    BUENO ACA EL SOLO...
    
    e|---------------------|-0------0-|-0--------|-0----------------------|
    B|---10b-10-8-10-8-7-8-|----------|--------3-|------------------------|
    G|-9-------------------|---2b-0---|---2b-0---|---2b-0-2-0-2-3-2-0-2-0-|
    D|---------------------|----------|----------|------------------------|
    A|---------------------|----------|----------|------------------------|
    E|---------------------|----------|----------|------------------------|
    
    e|---------------------------|----10----------10-----------10----------|
    B|------8-8-8/0(bien rapido)-|-10----10-8-7-8-----10-8-7-8----10-8-7-8-|
    G|-/9-9----------------------|-----------------------------------------|
    D|---------------------------|-----------------------------------------|
    A|---------------------------|-----------------------------------------|
    E|---------------------------|------------------
  • Esto es lo que toca el bajo en la version grabada en el estudio
    El primer riff tambien se puede tocar una escala mas abajo, pero habria
    que afinar un tono mas bajo para poder tocarlo.
    
    Intro: Em G D A
    
    Riff 1:
    G|------------------------------------------------------------|
    D|------------4--5----7--5--4----------------5----7--5--7--5--|
    A|----7----7-------------------7--5----5--7-------------------|
    E|------------------------------------------------------------|
    
    Riff 2:
    G|---------------------------------------------------------|
    D|---------------------------------------------------------|
    A|------------------5----------------2--3--5---5--3--5--3--|
    E|--5----5--7--8-------8--7--5--3--------------------------|
    
    
    
    (Riff 1)
    
    Estaba el diablo mal parado
    
    en la esquina de mi barrio
    
    Ahí donde dobla el viento
    
    y se cruzan los atajos.
    
    
    Al lado de el estaba la muerte
    
    con una botella en la mano,
    
    Me miraban de reojo
    
    y se reían por lo bajo.
    
    
    Y yo esperaba no se a quien
    
    al otro lado de la 
  • C: crash
    H: hi-hat (X: abierto, x: medio cerrado)
    R: redoblante(si esta en mayuscula se le pega al marco)
    T1: tom 1
    T2: tom 2
    T3: tom de pie
    B: bombo
    El tema es base(para principiantes)
    El intro del tema comienza con solo de guitarra
    y despues entra la bateria asi:
    C |-----------------|
    H |-x-x-x-x-x-x-x-x-|
    R |-----0-------0---|
    T1|-----------------|
    T2|-----------------|
    T3|-----------------|
    B |-o------oo------o|
    Y el arreglo que hace es cada 1 tiempo(EL ARRWGLO ES SIEMPRE
    PERO CUANDO NO LE PAGA AL MARCO TAMPOCO EN EL ARREGLO):
    C |-----------------|
    H |-x-x-x-x-x-x-x-x-|
    R |-----O----O----O-|
    T1|-----------------|
    T2|-----------------|
    T3|-----------------|
    B |-o------oo--o-o--|
    Despues de esto hace lo mismo pero sin pegarle al marco
    y pasa de pegarle al marco al redo con esto:
     C|----------|----------|
     H|----------|----------|
    T1|-----o----|-----oo---|
     R|---o---oo-|-oo-------|
    T2|----------|----------|
    T3|----------|-------oo-|
     B|-o--------|----------|
    Se sigue tocando hasta q s
  • TAL VEZ LES GUSTE ESCUCHAR UNA HISTORIA...
    ...LA HISTORIA DE LA ESQUINA:
    
    INTRO (Armonica en La Mayor)
    
    Primer Solo
    (1)b(1)b(1)(2)largaaaa-
    (1)b(1)b(1)(2)4 3-
    ANTES DE: '...Y temblando como una hoja...'
    (1)b(1)b(1)(2)4 3(4)-
    '...Y bajo un árbol de otoño...'; 3 4 3 esta ultima nota es larguiiisima
    y sigue, 3 4- 3 4-(3)(2)(2)las dos arrastrando hacia los graves
    '...Sus triunfos y sus fracasos...'; (1)b(1)b(1)(2)4 3(dos veces)
    --------------------------------------------/
    A PRTIR DE ACA USA UNA ARMONICA EN Re Mayor/
    ------------------------------------------/
    '¡¡¡...en la esquina...de mi barrio...!!!';(5)larga con TREMOLO.sigue;
    (5)5(5)5(4)esta ultima con tremolo.
    inmediatamente comienza el solo largo y final;
    desde el final de '¡¡¡...en la esquina de mi barrio...!!!' :
    
    SOLO GROSSO:
    
    Primera vuelta del solo
    (4)5(5)5(4)-(4)5(5)6(6)7(6)6(5)5(4)6 5-
    5(5)6(6)(6)-
    Segunda vuelta del solo
    (4)5(5)5(4)-(4)5(5)5(4)-(4)5(5)(4)5 5(5)4(4)con tremolo-
    Terecera vuie
  • +
    ¡Colabora con nosotros!
    Envíanos tu versión de esta canción

Letra de Balada del diablo y de la muerte
Estaba el diablo mal parado
en la esquina de mi barrio
Ahí donde dobla el viento
y se cruzan los atajos.
Al lado de el estaba la muerte
con una botella en la mano,
me miraba de reojo
y se reían por lo bajo.
Y yo que esperaba no se a quien
al otro lado de la calle del otoño
una noche de bufanda
que me encontró desvelado
entre dientes, oí a la muerte
que decía, que decía así:
Cuantas veces se abra escapado
como laucha por tirante
y esta noche que no cuesta nada,
ni siquiera fatigarme
podemos llevarnos un cordero
con solo cruzar la calle
Yo me escondí tras la niebla
y mire al infinito
a ver si llegaba ese
que nunca iba a venir.
Estaba el diablo mal parado
en la esquina de mi barrio
al lado de el estaba la muerte
con una botella en la mano.....
Y temblando como una hoja
me cruce para encararlos
y le dije, me parece que esta vez
me dejaron bien plantado
Les pedí fuego y del bolsillo
saque una rama pa´convidarlos
Y bajo un árbol del otoño
nos quedamos chamullando.
Me contaron de sus vidas,
sus triunfos y sus fracasos
de que el mundo estaba loco
y hasta el cielo fue comprado:
y mas miedo que ellos dos
me daba el propio ser humano
y yo ya no esperaba a nadie
y entre las risas del aquelarre
el diablo y la muerte
se me fueron amigando.
Ahí donde dobla el viento
y se cruzan los atajos.
Ahí donde brinda la vida
en la esquina de mi barrio.
Enviado por oveja de temperley.




[Balada del diablo y de la muerte chords][Balada del diablo y de la muerte cifra]
© LaCuerda.net · aviso legal · privacidad · es · en · pt · contacto