Tablatura para Guitarra de la Renga: En el baldío
Conexión · Inscripción
Letras y Acordes
Pantalla Completa
Imprimir
Versión Texto
Añadir Favorito
Otras Versiones

Mostrar Diagramas
Desfile Automático
Manipular Acordes
Formato del Texto


En el baldío(TAB)

la Renga

calidad:
reng0266
AUTOR: Gustavo F. Nápoli
ALBUM: Insorportablemente Vivo (2000)
Enviado por Federico
   Vibrato>>>                 ~
Estiradas>> B Estirar y bajar>>> ba Slide>>> s Sonidos armónicos>>> <> Ligados ascendentes> h Ligados descendentes> p Se mantiene la estirada> / INTRO(se toca con wha-wha, mejor si tienen pedal de expresión)
E --------------------------12-----------------------------------------*------------------20b--
B --------------------------12------------------------------------------------------------19b--
G --4-4-4-2baP0----4-4-4-0--12--4-4-4-2b-2b-----4-4-4----4-4-4-2b-2b---------------------------
D --2-2-2----------2-2-2-0------2-2-2-----------2-2-2----2-2-2---------------------------------
A ---------------------------------------------------------------------------------------------
E --------------------------------------------------------------------------------------------- Riff 1 Riff 2
E ---------------|---------------------------12------------------------------3----------2------
B ---------------|---------------------------12------------------------------0----------3------
G ---------------|---------------------------12------------------------------0----------2------ D ---------------|---------------------------14------------------------------0-0h2---0--0------
A --------0------|--2----5-7----7-9-10-12-14-14-12s14-14-12-10-9-10-10-9-7-2-2-----2-----------
E --3--2----2----|--0----3-5----5-7-8--10-12-12-10s12-12-10-8--7-8--8--7-5-0-3----------------- Empieza sin tocar G(Riff 1) Las garras de un terrible ser,
Em D desplumaban un ángel en en cielo, desde aquí lo vi caer, hacia el baldío de los misterios, yo corrí desesperado, sentí el ardor de una herida abierta, estaba el ángel ahi tirado y en sus ojos habló la tristeza.
G5 D5 D#5 E5 No me mires así,
E5 C5 Dios me ha hecho para caer,
G5 D5 D#5 E5 y no sientas pena por mi,
E5 C5 tal vez vivir cueste el pecado,
G5 D5 D#5 E5 y si todo lo soñado,
E5 C5 no vive en la realidad,
G5 D5 es el ángel que te cuida,
Em G C el que ves caido acá. RIFF 2 Las espinas del cardo santo, lo abrazaron en su caída, y entre saumerios de basura, el ángel aquel se moría, sentí un vacío a mis espaldas, y sentí que solo me quedaba, en el baldío de los misterios, ante esos ojos tristes que me hablaban. No me mires así, Dios me ha hecho para caer, y no sientas pena por mi, tal vez vivir cueste el pecado, y si todo lo soñado, no vive en la realidad,
G5 D5 es el ángel que te cuida,
Em G C que se está muriendo acá,
G5 D5 el ángel que te cuida,
Em G C que se está muriendo acá. Base de guitarra sobre solo de saxo: G5//D5//E5//C5//(x4) Final
E --3-----------3-----------------------------------0------------------------------------------
B --0-----------0-----------------------------------0------------------------------------------
G --0-----------0-----------------------------------0------------------------------------------
D --0---------2-0-0h2---0---------2-----------------2------------------------------------------
A --2-----0---2-2-----2-------0---2-----------------2------------------------------------------
E --3-3-2---2-0-3---------3-2---2-0-----------------0------------------------------------------ En la intro donde les marco * es pq va haciendo slides descendentes y ascendentes aumentando de trastes progresivamente hasta llegar a E -20b--
B -19b-- En el segundo estribillo hay una segunda viola de fondo q hace unos punteos muy faciles, fijense que los van a sacar muy facilmente. Tanto en la primera estrofa como en la segunda llevan en la primer frase siempre el Riff 1 y en la 3era y en la 5ta y asi sucesivamente. Bueno eso es todo, espero que les suene bien, la traduccion esta impecable. Suerte! Aguante la rengaaa loco!
Este fichero es trabajo propio de su transcriptor y representa su interpretación personal de la canción. El material contenido en esta página es
para exclusivo uso privado, por lo que se prohibe su reproducción o retransmisión, así como su uso para fines comerciales.
© LaCuerda.net · Aviso Legal · Privacidad