Acordes de Guitarra » R »la Renga » Veneno (Tab)

Veneno
la Renga

Letras, Acordes y Tabs para Guitarra, Bajo y Ukulele

  •       DO                LAm
    1|---0--0----------------0--0---------------
    2|---1----1---------1----1----1---------1---
    3|---0------0-----0------2------2-----2-----
    4|---2--------2-2--------2--------2-2-------
    5|---3-------------------0------------------
    6|---0-------------------0------------------
    
    1|--0--0---------------0--0-----------------
    2|--1----1---------1---1----1---------1-----
    3|--0------0-----0-----2------2-----2-------
    4|--2--------2-2-------2--------2-2---------
    5|--3------------------0--------------------
    6|--0------------------0--------------------
    
    
    =================================================
    Acordes por Leandro "Grunge" Amato
    (amato@teletel.com.ar)
    =================================================
    
  • C,Am,C,Am,A7 x2
    
       C
    En un rincon de las sierras
                      Am    A7
    donde arden las estrellas
       C
    deje mi herida abierta
                   Am  A7
    en un valle de pena.
    
    Dm
    Casi sin darte cuenta
          Am
    se te puede enfermar
    
    el corazón
    Dm
    Cuando uno menos lo espera
          E
    
  •      C              Am
    E|---0--------------0------3--3----------
    B|---1---1----------1--1---1--1----------
    G|---0-----0--0-----2----2-2--2----------
    D|---2-------2------2------2--2--2-0-----
    A|---3----------3-2-0--------------------
    E|---0-----------------------------------
         C              Am
    E|---0--------------0------00000000------
    B|---1-1------1-----1-1----11111111------
    G|---0---0----0-----2---2--22222222------
    D|---2------2-------2------22222222------
    A|---3----------3-2-0------00000000------
    E|---0-----------------------------------
    
       C                                        Am
    En un rincón de las sierras donde arden las estrellas,
       C                                 Am
    dejé mi herida abierta en un valle de penas.
     Dm                        Am
    
  •    Estiradas>>                B
       Estirar y bajar>>>         ba
       Slide>>>                   s
       Sonidos armónicos>>>       <>
       Ligados ascendentes>       h
       Ligados descendentes>      p
       Se mantiene la estirada>   /
    
    
       Bueno fanaticos de la renga y del rock, mi nombre es Federico y aca les paso el solo de Veneno, 
       es un solo tremendo de un tema que pertenece a La Negra. Proximamente les voy a mandar el solo 
       de 'El final es en donde partí'. Bueno espero que les sea facil tocarlo, la traduccion 
       esta perfectamente hecha. Cualquier duda me escriben.
    
    
    E  --------------------------------------------------------------------------------------------
    B  -------------------------------------------8-----------------------8-8s10--13H15P13---------
    G  ---------------------------------7baP5-7-7/----7baP5---5-5-----7s9------------------14-14---
    D  ------------2~~---5-5-5s7---7------------------------7-------7------------------------------
    A  --3-----5-----------------------------------------------------------------------------------
    
  •        DO                LAm
    
    e|---------------------------0----0-------
    B|---1-----1-------------1---1----1---1---
    G|-0--0--------------------2----2------0--
    D|-2----2-2-----------2-2---2----2---2----
    A|-3----------3-2-0-----------------------
    E|----------------------------------------
           DO                LAm
    e|---------------------------0-0-0--------
    B|---1-----1-------------1---1-1-1--------
    G|-0--0----------------------2-2-2--------
    D|-2----2-2-----------2-2----2-2-2--------
    A|-3----------3-2-0-----------------------
    E|----------------------------------------
    
    
       C                                        Am
    En un rincón de las sierras donde arden las estrellas,
       C                                 Am
    
  •           DO             MI             LAm                DO             MI  LAm
    e|--0----------------------------|-0--------0-0-|------------------------|----0-------111111--|
    B|--1-------1--------------------|-1--1-----1-1-|-------1--1-------------|----1--1----111111--|
    G|--0----------0--------0--------|-2-----2--2-2-|-------0--------0-------|----2----2--222222--|
    D|--2---2---------2--------2-----|-2--------2-2-|-------2-----------2----|----2-------222222--|
    A|--3-3--------------3--------2--|-0--------0-0-|--3-2--3-----3--------3-|-2--0-------000000--|
    E|-------------------------------|--------------|------------------------|--------------------|
    
    VERSO 1:
              DO                DO/SI      LAm               REm                   LAm         REm     MI7
    e|----0-0--0-0-0-0--0-0-0--|-----|--0--0-0-0--00--|-1--1-1-1--1-1-1--1-1-|-0--0-0--0-0-0-|-----|-0000000-|
    B|----1-1--1-1-1-1--1-1-1--|--1--|--1--1-1-1--11--|-3--3-3-3--3-3-3--3-3-|-1--1-1--1-1-1-|-----|-0000000-|
    G|----0-0--0-0-0-0--0-0-0--|--0--|--2--2-2-2--22--|-2--2-2-2--2-2-2--2-2-|-2--2-2--2-2-2-|-----|-1111111-|
    D|--2-2-2--2-2-2-2--2-2-2--|--0--|--2--2-2-2--22--|-0--0-0-0--0-0-0--0-0-|-2--2-2--2-2-2-|-REm-|-0000000-|
    A|--3-3-3--3-3-3-3--3-3-3--|--2--|--0--0-0-0--00--|----------------------|-0--0-0--0-0-0-|-----|-2222222-|
    E|-------------------------|-----|----------------|----------------------|---------------|-----|-0000000-|
    
       DO                                  DO/SI    LAm
    En un rincón de las sierras donde arden las estreeeeeeellas,
       DO                             DO/SI  LAm
    
  •   DO                LAm
    1-0----0------------0---0-----0------------
    2-1------1----------1-----1-----1----------
    3-0--------0--------2-------2-----2--------
    4-2----------2------2---------------2------
    5-3------------3-2--0-----------------0----
    6-0-----------------0----------------------
    
    1-0----0------------0---0---0-0-0-0-0-0-0-0
    2-1------1----------1-----1-1-1-1-1-1-1-1-1
    3-0--------0--------2-------2-2-2-2-2-2-2-0
    4-2----------2------2----------------------
    5-3------------3-2--0----------------------
    6-0-----------------0----------------------
    
    DO                                              LAm
    En un rincon de las sierras donde arden las estrellas
    DO                                     LAm
    Deje mi herida abierta en un valle de penas
    REm                   LAm
    
  • Intro.
    G|---------------------------|-----------------------------------|--------|----------------|
    D|---------------------------|-----------------------------------|--------|----------------|
    A|--(3)-----------------3-2--|(0)---------------------3-2-0------|(3)-3-2-|-(0)--000000000-|
    E|---------------------------|------------------------------3-1-0|--------|----------------|
    
    Verso 1
    G|---------------------------|-----------------------------------|--------|----------------|
    D|---------------------------|-----------------------------------|--------|----------------|
    A|--(3)-----------------3-2--|(0)---------------------3-2-0------|(3)-3-2-|-(0)--000000000-|
    E|---------------------------|------------------------------3-1-0|--------|----------------|
    
    G|---------------------|
    D|---------------------|
    A|-7-7-7-7-7-7--7-7-7--|
    E|---------------------|
    
    Verso 2, 3 y 4 (como verso 1)
    
    Solo de guitarra.
    G|------------------------|---------------------------|--|----------|
  • +
    ¡Colabora con nosotros!
    Envíanos tu versión de esta canción
  • Tutorial
    HD
    Como Tocar Veneno De La Renga - Lección de Guitarra Electrica Para Principiantes
    9:16






[Veneno chords][Veneno cifra]
© LaCuerda.net · aviso legal · privacidad · es · en · pt · contacto