Acordes de Guitarra » R »la Renga » El Final es en donde partí (Tab)

El Final es en donde partí
la Renga

Letras, Acordes y Tabs para Guitarra, Bajo y Ukulele

  • INTRO:  G  Em  G  A  A#  A  G  Em  x4
    
    1)       Em            G
    Déjame ver que hay para saborear esta vuelta,
              A                       A#      A    G    Em
    la carta no está siempre a tu alcance en los matutinos.
    
    Loco de pensar que se dispute el poder y la gloria,
    y con el frio de un reino las almas congelar;
    
    Cuanta verdad, cuanta mentira y cuantas palabras,
    y todo ese motor para devastar tu inconciente.
    
    2)           C                               G
    Y en qué lugar, habrá consuelo para mi locura,
                              D           A#       A  G     Em
    esta ironía con qué‚ se cura si el final es en donde partí,
    
    Y a quién llamar, a quién golpearle la puerta tan tarde,
    con quién hablar cuando no hay nadie
    
  • Em
    dejame ver que hay
      G
    para saborear esta vuelta
              A                    A#
    la carta no esta siempre al alcance
       A         G    Riff 2
    en los matutinos
    
    loco de pensar
    que se disputen el poder y la gloria
    y con el frio de un reino
    las almas congelar
    
    cuanta verdad, cuanta mentira
    y cuantas palabras
    y todo ese motor
    para devastar tu inconciente
    
    ESTRIBILLO:
    
  • INTRO:  G  Em  G  A  A#  A  G  Em  x4
    
    1)       Em            G
    Déjame ver que hay para saborear esta vuelta,
              A                       A#      A     G   Em
    la carta no está siempre a tu alcance en los matutinos.
             Em            G
    Loco de pensar que se dispute el poder y la gloria,
              A                    A#   A  G  Em
    y con el frió de un reino las almas congelar;
            Em               G
    Cuanta verdad, cuanta mentira y cuantas palabras,
           A              A#     A      G   Em
    y todo ese motor para devastar tu inconsciente.
    
    2)           C                            G
    Y en qué lugar, habrá consuelo para mi locura,
                              D           A#       A     G   Em
    esta ironía con qué‚ se cura si el final es en donde partí,
                 C                                    G
    
  •    SOl MI SOL LA         SIb  LA SOL MI   RIFF 1
    e|-------------------------------------|---------------||
    B|-------------------0-----------------|---------------||
    G|-------------------0-----------------|---------------||
    D|----------------7--7---8-8-8-7-5-----|---------------||X2
    A|--5--2---5-(7)--7------8-8-8-7-5-(2)-|-2p1---1---(2)-||
    E|--3--0---3-(5)--5----5/6-6-6-5-3-(0)-|-----0---0-----||
    
    y despues con distorcion
    
       SOl MI SOL LA         SIb  LA SOL MI   RIFF 1             SOl MI SOL LA5       SIb  LA SOL MI5
    e|-------------------------------------|---------------||  |------------------------------------|
    B|-------------------------------------|---------------||  |------------------------------------|
    G|-------------------------------------|---------------||  |------------------------------------|
    D|----------------7--7---8-8-8-7-5-----|---------------||X3|----------------7--7---8-8-8-7-5----|
    A|--5--2---5-(7)--7--7---8-8-8-7-5-(2)-|-2p1---1~--(2)~||  |--5--2---5-(7)--7--7---8-8-8-7-5-(2)|
    E|--3-p0---3-(5)--5--5-5/6-6-6-5-3-(0)-|0----0---0-----||  |--3-p0---3-(5)--5--5-5/6-6-6-5-3-(0)|
    
    BAJO:
    G|-------------------------------------|---------------|  |-------------------------------------|
    
  • Bueno aca les dejo el solo...
    
    * = pinch armonico.
    
    
    ------------------------------------------------------------------------
    --12^-------------------------------------------------------------------
    --12^------12--14--/12-14-12-14-12-14-12-14-12-15-12-15-12-15-14-12-----
    ------14------------------------------------------------------------14--
    ------------------------------------------------------------------------
    ------------------------------------------------------------------------
    
    ------------------------------------------------12--12-12--15--14--12---
    -----12^------12^------------12^----------------11--12-12--13--13--12---
    -----12^------12^------------12^------12---14---------------------------
    -14-------14-------------14-------14------------------------------------
    ------------------------------------------------------------------------
    ------------------------------------------------------------------------
    
    ---------------------------------------------------------------------
  •    Estiradas>>                B
       Estirar y bajar>>>         ba
       Slide>>>                   s                
       Sonidos armónicos>>>       <>
       Ligados ascendentes>       h
       Ligados descendentes>      p
       Se mantiene la estirada>   /
    
        
    E  ---------5-5h6p5h6p5h6p5-6h7-5-------------------------------------10s12-12-12-15-15p12-12---
    B  --8-5-8--5---------------------8-5-----12----12--------------------10s12-12-12-15-15p12-12--- 
    G  --7-4-7--------------------------------12----12-----12----12-14~~----------------------------
    D  ------------------------------------14----14----14-----14------------------------------------
    A  ---------------------------------------------------------------------------------------------
    E  ---------------------------------------------------------------------------------------------
    
    
    E  --10p7-10p7-7-7-10p7-10p7-10b---10b-10b-10b-10ba--------------------12-15-17baP15----15-17ba-
    B  -------------------------------------------------8h10-10b---9s12-15---------------17---------
    G  ---------------------------------------------------------------------------------------------
    
  •      G5  E5  G5  A5   A#5 A#5 A#5 A5  G5  E5   _
    E:-----------------0------------------------|   |
    B:-----------------0------------------------|   |
    G:-----------------0------------------------|   |
    D:------------------------------------------|   |
    A:---5---2---5---7----8---8---8---7---5---2-|   |
    E:---3---0---3---5----6---6---6---5---3---0-|   |
                                                    |  x2
                                                    |
       Riff 1                                       |
    E:---------------------|                        |
    B:---------------------|                        |
    G:---------------------|                        |
    D:---------------------|                        |
    A:-------0-------0---2-|                        |
    E:---0-------0---0-----|                       _|
    
    
         G5  E5  G5  A5   A#5 A#5 A#5 A5  G5  E5    _
    E:------------------------------------------|    |
    
  • INTRO
    
    00:15
                                   _
    G|---------------------------|  |
    D|---------------------------|  |
    A|---------------------------|  |
    E|-3-0-3-5555-666-5-3-0------|  |
                                    |  X4
    G|--------------|               |
    D|--------------|               |
    A|-2h1-0-1-2----|               |
    E|--------------|              _|
    
     VERSO
    
    00:45
    
    “Déjame ver que”  “hay para saborear esta vuelta”
    G|----------|--------------------|
    D|----------|--------------------|
    A|----------|--------------------|
    E|0-0-0-0-0-|-3-3-3-3-3-3-3-3-3-3|
    
    “la carta no está siempre a tu alc…”
    G|------------|
    D|------------|
    A|------------|
    E|-5-5-5-5-5-5|
    
    “…ance en los matutinos”
    G|----------------|
    D|----------------|
    A|----------------|
    E|-6-6-6-5-3-0-0-0|
    
    “Loco de pensar que se dispute el poder y la gloria,”
    G|----------|--------------------|
    D|----------|--------------------|
    A|----------|--------------------|
    E|0-0-0-0-0-|-3-3-3-3-3-3-3-3-3-3|
    
    y con el frio de un 
  • +
    ¡Colabora con nosotros!
    Envíanos tu versión de esta canción
  • Tutorial
    HD
    Como Tocar El Final Es En Donde Parti - La Renga - Curso De Guitarra - Rock Nacional
    12:40

Letra de El Final es en donde partí
Déjame ver que hay para saborear esta vuelta,
la carta no está siempre a tu alcance en los matutinos.
Loco de pensar que se dispute el poder y la gloria,
y con el frio de un reino las almas congelar;
Cuanta verdad, cuanta mentira y cuantas palabras,
y todo ese motor para devastar tu inconciente.
Y en qué lugar, habrá consuelo para mi locura,
esta ironía con qué‚ se cura si el final es en donde partí,
Y a quién llamar, a quién golpearle la puerta tan tarde,
con quién hablar cuando no hay nadie
si esta noche no puedo dormir.
1)Déjame ver que hay para saborear esta vuelta,
la verdad, la mentira y la mueca de tu ingenuidad.
Cuantas palabras se disputan le poder y la gloria,
y cuantas vidas se pierden en el frio de un reino mortal.
Loco de pensar, queriendo entrar en razón y el corazón,
tiene razones que la propia razón nunca entender .
2)Y a dónde voy, siempre voy a buscar lo que es mio,
aunque el planeta termine en un círculo,
y el final es en donde partí.
No llores más, dame la mano contame tu suerte,
de esta manera quizás no sea la muerte,
la que nos logre apagar el dolor.
Y en que lugar, habrá consuelo para mi locura,
esta ironía con qué‚ se cura si el final es en donde partí.
No llores más, dame la mano contame tu suerte,
de esta manera quizás no sea la muerte,
la que nos logre apagar el dolor.
creo que le faltaba algo a esta cancion
pues ahi deje mi observacion. saludos!!!




[El Final es en donde partí chords][El Final es en donde partí cifra]
© LaCuerda.net · aviso legal · privacidad · es · en · pt · contacto