Acordes de Guitarra » P »Patricio Rey y sus Redonditos de Ricota » Nuestro amo juega al esclavo (Tab)

Nuestro amo juega al esclavo
Patricio Rey y sus Redonditos de Ricota

Letras, Acordes y Tabs para Guitarra, Bajo y Ukulele

  • INTRO: G
    
    Em                             D
        Mucha tropa riendo en las calles.
    Em                           D
        Con sus muecas rotas cromadas.
    Em                          D
        Y por las carreteras valladas
    Em
        Escuchás caer tus lágrimas.
    
    (Repite Intro)
    
    
    Nuestro amo juega al esclavo
    De esta tierra que es una herida
    Que se abre todos los días
    A pura muerte, a todo gramo.
    
    D      C            G (repite intro)
    
  • e---------------------------------
    B---------------------------------
    G---------------------------------
    D--------------------------------7
    A-0-3-5-5-6-5-3-5-0-0-3-5-5-6-5-3-
    E---------------------------------
    
    (Lo de arriba x 2)
    
    e------------------------
    B------------------------
    G------------------------
    D------4-4-4-7-7-4-4-----
    A-5-0-5-5-5-------5-5-0-5
    E------------------------
    
    Em                             D
    Mucha tropa riendo en las calles
    Em                            D
    con sus muecas rojas cromadas
    
  • e|-------------------------|--------------------------||
    B|-------------------------|----------------------3---||
    G|-----0--0--1^0-----0-----|-------0--0--1^0----------|| X2
    D|-0^3-------------3----0--|--0^3--------------3------||
    A|-------------------------|--------------------------||
    E|-------------------------|--------------------------||
    
    BAJO: (en redondas)
    G|----------------------------------------------------||
    D|----------------------------------------------------|| X2
    A|----------------------------------------------------||
    E|------------------------3-------------------------3-||
    
    sigue..
    
    Guitarra:
    e|-------------------------|--------------------------||
    B|-------------------------|----------------------3---||
    G|-----0--0--1^0-----0-----|-------0--0--1^0----------|| X2
    D|-0^3-------------3----0--|--0^3--------------3------||
    
  • Intro
    G|---|x16
    D|---|
    A|---|
    E|-0-|
    
     |-------------|x8
     |-------------|
     |-5--0--5-5-0-|
     |-------------|
    
    Verso
    G|-----------------|x4
    D|-----------------|
    A|-7--7--7--5-5-0--|
    E|-----------------|
    
    Puente 1
    G|-------------|x8
    D|-------------|
    A|-5--0--5-5-0-|
    E|-------------|
    
    Verso
    G|-----------------|x4
    D|-----------------|
    A|-7--7--7--5-5-0--|
    E|-----------------|
    
    Puente 2
    G|---------------|
    D|---------------|
    A|-3(x16)-5(x16)-|
    E|---------------|
    
     |-----------------------|x8
     |---------------------7-|
     |-0-3-5-5-6-5-3-5-0-3---|
     |-----------------------| 
    
     |------------|x4
     |-------4----|
     |-5-0-5---5--|
     |------------|
    
     |-------------------|x2
     |---2-5-----4-7-----|
     |-3-----3-5-----5-7-|
     |-------------------|
    
    Verso
    G|-----------------|x4
    D|-----------------|
    A|-7--7--7--5-5-0--|
    E|-----------------|
    
    Puente 1
    G|-------------|x8
    D|-------------|
    A|-5--0--5-5-0-|
    E|-------------|
    
    Verso
    G|-----------------|x4
    
  • +
    ¡Colabora con nosotros!
    Envíanos tu versión de esta canción
  • Tutorial
    HD
    Explicado - Como tocar "Nuestro amo juega al esclavo" de en el bajo tutorial#325
    10:08

Letra de Nuestro amo juega al esclavo
Mucha tropa riendo en las calles.
Con sus muecas rotas cromadas.
Y por las carreteras valladas
Escuchás caer tus lágrimas.
(Repite Intro)
Nuestro amo juega al esclavo
De esta tierra que es una herida
Que se abre todos los días
A pura muerte, a todo gramo.
Violencia es mentir.
Sólo de viola:
Formidables guerreros en jeeps.
Los titanes del orden viril.
¿Qué botines esperan ganar?
Si nunca un perro mira el cielo.
Si hace falta hundir la nariz
En el plato lo vamos a hacer.
Por los tipos que huelen a tigre,
Tan soberbios y despiadados.
Violencia es mentir.




[Nuestro amo juega al esclavo chords][Nuestro amo juega al esclavo cifra]
© LaCuerda.net · aviso legal · privacidad · es · en · pt · contacto