Acordes de Guitarra » P »Patricio Rey y sus Redonditos de Ricota » Todo un palo (Tab)

Todo un palo
Patricio Rey y sus Redonditos de Ricota

Letras, Acordes y Tabs para Guitarra, Bajo y Ukulele

  • (Intro) Dm A# [Dm Gm]x7  C
    
    
    Dm    Gm             D         Gm
       El futuro llegó hace rato.
    Dm      Gm       Dm          Gm
       Todo un palo, ya lo ves.
    Dm      Gm          Dm            Gm
       Veámoslo un poco con tus ojos.
    Dm      Gm       C         Gm
       El futuro ya llegó.
    ------------------------------------------
    (Pre-E)
    
    C
       Yo voy en trenes.
       No tengo donde ir.
       Algo me late
       Y no es mi corazón.
    -------------------------------------------
    
  • ------------------------------------------------------------------|
                                                                      |
    ~ = Vibratos                           b = Estiradas o Bends      |
    h = Lidado ascendente o Hammer on      r = Soltar la estirada     |
    p = Lidago descendente o Pull off      / = Arrastres              |
                                                                      |
    ------------------------------------------------------------------|
    
    Intro:
    
    e------------------------------5--5-5--5-6-6-6-5-|
    B---------------3--------------5--5-6--6-6-6-6-5-|
    G------2-2------3--3-3-2-------5--5-5--5-5-5-5-5-|
    D--0-0-----3-0-----------3-----------------------|  X 4
    A------------------------------------------------|
    E------------------------------------------------|
    
    Sobre esta base hay saxo y punteos de guitarra:
    
    SAXO:                             *  GUITARRA:
                                      *
       00:09                          *     00:14
                             
  • Guitarra 1
    es conveniente que se junte con la guitarra 2 y el bajo que he escrito
    
    
    
    E||------------------------|----------------------|--5----5----5--5----5--|
    B||------------------------|----------------------|--5----5----5--6----6--|
    G||-------2----2--------3--|------3----3--2-------|--5----5----5--5----5--|
    D||--0------------3p-0-----|-----------------3----|-----------------------|
    A||------------------------|----------------------|-----------------------|
    E||------------------------|----------------------|-----------------------|
    
    
    
    --6----6----6--5--5----|------------------------|----------------------|
    --6----6----6--6--5----|------------------------|----------------------|
    --5----5----5--5--5----|-------2----2--------3--|------3----3--2-------|
    -----------------------|--0------------3p-0-----|-----------------3----|
    -----------------------|------------------------|----------------------|
    -----------------------|------------------------|----------------------|
  • Bueno, aca esta el solo final... cualquier duda manden un mail a vamos-las-bandas@hotmail.com
    
    
    							  	       Mantener Estirada hasta el 3er '6'
    |----6--8-8^--|----6--------5^-5^-------|----------3^-3^-----3^-3^-----|-------------------------------|-----------7^-8-8-8\--|
    |-/8----------|-/8---8-6----6^-6^-------|----------4^-4^-----4^-4^-----|--6^-6^-6^-4--6--6h4---4-------|-------6^-------------|
    |-------------|----------8---------8--5-|-5---3-5--------(5)-------(5)-|---------------------5---3-3h5-|---3-5----------------|
    |-------------|-------------------------|---5--------------------------|-------------------------------|-5--------------------|
    |-------------|-------------------------|------------------------------|-------------------------------|----------------------|
    |-------------|-------------------------|------------------------------|-------------------------------|----------------------|
    
    
    |-/13^-13^-13^-13h11-----|--------------15---15----15----15----15---15
  • Intro
    G|---------------------------------|x3
    D|---4-7---------------------------|
    A|-5-----5-----22-55-------55------|
    E|----------33-------33--------33--|
    
     |-----------------------|
     |---4-7-----------------|
     |-5-----5-----22-55-----|
     |----------33-------33--|
    
     |-------------------|x4
     |------------3------|
     |-3(x12)-4-5---5-4--|
     |-------------------|
    
    Verso
    G|--------------------------------|x4
    D|-------------4-7----------------|
    A|-55--------5-----5-----22-55----|
    E|-----33-------------33-------33-|
    
    Puente
    G|-----------------|x4
    D|------------3----|
    A|-3(x12)-4-5---5--|
    E|-----------------|
    
    Coro
    G|---------------------|x4
    D|---------------------|
    A|-1(x8)--------3(x16)-|
    E|-------1(x8)---------|
    
    Verso
    G|--------------------------------|x4
    D|-------------4-7----------------|
    A|-55--------5-----5-----22-55----|
    E|-----33-------------33-------33-|
    
    Puente
    G|-----------------|x4
    D|------------3----|
    A|-3(x12)-4-5---5--|
    E|-------------
  • Intro
    G|---------------------------------|
    D|---------------5--5-7-8-11-------|
    A|-----12/5-5-7-8------------------|
    E|-----------------3-5-6-9---------|
    
    G|-------------------------------------------------|x3
    D|-------------------------------5--5-7-8-11-------|
    A|--------------------12/5-5-7-8-------------------|
    E|-1010-----33---------------------3-5-6-9---------|
    
    G|-----------------------------------------|x2
    D|-------------------------------3-1-------|
    A|-333333333333----1-333333333333----3-1-3-|
    E|-------------1-3-------------------------|
    
    Verso
    "El futuro llego..."
    G|-------------------------------------------------|x4
    D|-------------------------------5--5-7-8-11-------|
    A|--------------------12/5-5-7-8-------------------|
    E|-1010-----33---------------------3-5-6-9---------|
    
    Puente
    "Yo voy en trenes..."
    G|-----------------------------------------|x2
    D|-------------------------------3-1-------|
    A|-333333333333----1-333333333333----3-1-3-|
    E|-------------1-3---------------------
  • +
    ¡Colabora con nosotros!
    Envíanos tu versión de esta canción
  • Tutorial
    HD
    Explicado - Como tocar "Todo un palo" de Los Redondos en el bajo tutorial#177
    17:28
  • Tutorial
    Todo un palo Los Redondos como tocar cover
    4:09

Letra de Todo un palo
El futuro llegó hace rato.
Todo un palo, ya lo ves.
Veámoslo un poco con tus ojos.
El futuro ya llegó.
Yo voy en trenes.
No tengo donde ir.
Algo me late
Y no es mi corazón.
¿Cómo no sentirme así?
Si ese perro sigue allí.
¿Que podría ser peor? Eso no me arregla.
Eso no me arregla a mí.
Estás llamando a un gato con silbidos.
El futuro ya llegó.
llegó como vos no lo esperabas.
Todo un palo, ya lo ves.
El futuro llegó hace rato.
Todo un palo, ya lo ves.
Veámoslo un poco con tus ojos.
El futuro ya llegó.
(Pre-E) (E) [A# F C] x 5 Cm A# F C [A# F Cm] x2
By LuCiFeR




[Todo un palo chords][Todo un palo cifra]
© LaCuerda.net · aviso legal · privacidad · es · en · pt · contacto