Acordes de Guitarra » P »Patricio Rey y sus Redonditos de Ricota » Esa estrella era mi lujo (Tab)

Esa estrella era mi lujo
Patricio Rey y sus Redonditos de Ricota

Letras, Acordes y Tabs para Guitarra, Bajo y Ukulele

  • A-----0-2--  Am
    E-0-2------
    
    Punteo 2
    A-0-2-1---  Am
    E---------
    
    Intro: 
    Am F G E (Punteo 1) (x4)
    F E Am Am (x2) (Punteo 2)
    
    
    Am           F      E
    ¿Era todo? Pregunté.
             Am  (Punteo 1)
    Soy un iluso.
    Am            F       E
    No nos dimos nada más,
                  Am   (Punteo 2)
    sólo un buen gesto.
    
  • e|------------------------
    B|------------------------
    G|---2-0-2-0--0-----------
    D|---------------3-2------
    A|------------------------
    E|------------------------
    
      #2                                                         Am
    e|-----------------------------------------------------------
    B|-1-0-------------------------------------------------------
    G|-----2-0-------------------------8-9_10---9----------------
    D|---------3----2---------------7-9-------------7---------3-2
    A|-----------------------7-9-10------------------------------
    E|-------------------5---------------------------------------
    
    (Suenan como bajos)
      #3        Am| #4      Am
    e|------------|e----------
    B|------------|B----------
    G|------------|G----------
    
  •   Introducción:
    
      E|----0--|-1--1--|-5-3-5-3--3----------------|
      B|----1--|-1--1--|------------6-5------------|
      G|----2--|-2--2--|---------------------------|
      D|-2--2--|-3--3--|---------------------------|
      A|-0-----|-3--3--|---------------------0-3-0-|
      E|-------|-1--1--|-----------------0-3-------|                   
    
       LA BASE ES CON LAm-FA-MI-LAm
    
    
     Punteo:
    
    E|-----------------------------------------------------------------
    B|-1-0---------------------------------8-10--10-8---8-10-----------
    G|-----2-0----------------------7-9-10------------9-------9-7----9-
    D|---------3----2--------7-9-10------------------------------10----
    A|-----------------------------------------------------------------
    E|-------------------5---------------------------------------------
    
    
    E|-----------------------------------------------------------|-----
    B|-----------------------------------------------------------|-----
    G|-----------------------------9-7----9-7----9-7------
  •      LAm   FA  SOL         MI
    |-----0----11--5-3-5-3-3------|----------------|
    |-----1----11------------6-5--|----------------|
    |-----2----22-----------------|----------------|
    |---2-2----33-----------------|----------------| X3
    |---0-0--3-33-----------------|------0-3-------|
    |--------1-11-----------------|--0-3-----------|
    
         LAm   FA  SOL         MI
    |-----0----11--5-3-5-3-3------|
    |-----1----11------------6-5--|
    |-----2----22-----------------|
    |---2-2----33-----------------|
    |---0-0--3-33-----------------|
    |--------1-11-----------------|
              FA   MI   LAm                  FA     MI    LAm  (FA MI)
    |----------------------|--------------------------------|
    |-1-0------------------|---------------8-10-----8-------|
    |-----2-0--------------|--------7-9-10------------------|
    |---------3----2-------|-7-8-10-----------------------7-|
    
  • INTRO: Am F (Riff 1) + (Riff 2) x 4 / (1º  solo) (o Am F E Am x 3)
      Riff 1
    e|---5-3-5-3--3-----------
    B|---------------6-5------
    G|---2-0-2-0--0-----------
    D|---------------3-2------
    A|------------------------
    E|------------------------
    
      1º  solo                                                   F   E
    e|-----------------------------------------------------------
    B|-1-0---------------------------------8-10------------------
    G|-----2-0----------------------7-9-10--------9---2---------
    D|---------3----2--------7-9-10-----------------------------
    A|-------------------0---------------------------------------
    E|-----------------------------------------------------------
    
    (Suenan como bajos)
      Riff 2     Am| Riff 3    Am
    e|-------------|e------------
    
  • PUENTE:
    G|-------|-------|----------|-----------------|x3
    D|-------|-------|----------|-----------------|
    A|-------|-------|----------|----------------3|
    E|-5-51--|-1--1--|-3--31-1--|--0--0-0---3-5---|
    
    
    
    G|-------|-------|----------|-------|
    D|-------|-------|----------|-------|
    A|-------|-------|----------|-------|
    E|-5-51--|-1--1--|-3--31-1--|--0----|
    
    
    
    
    
    
    INTRO:
    G|-----------------|------------------|
    D|-----------------|------------------|
    A|-----------------|------------------|
    E|-1--1-1-1--1-1-1-|-0--0-0-0--0-0-0--|
    
    
    G|-----------------|------------------|
    D|-----------------|------------------|
    A|-----------------|------------------|
    E|-5--5-5-5--5-5-5-|-5--5-5-5--5-5-5--|
    
    
    G|-----------------|------------------|
    D|-----------------|------------------|
    A|-----------------|------------------|
    E|-1--1-1-1--1-1-1-|-0--0-0-0--0-0-0--|
    
    
    G|-----------------|------------------|
    D|-----------------|------------------|
    A|-----------------|------------------|
    E|-5--5-5--5-5--1--|---1
  • +
    ¡Colabora con nosotros!
    Envíanos tu versión de esta canción
  • Tutorial
    ESA ESTRELLA ERA MI LUJO TUTORIAL GUITARRA INTRO RASGUEO
    9:25
  • Tutorial
    Esa estrella era mi lujo Los Redondos como tocar cover
    3:16

Letra de Esa estrella era mi lujo
Punteo 2
¿Era todo? Pregunté.
Soy un iluso.
No nos dimos nada más,
sólo un buen gesto.
(El tema sigue igual)
Mordí el anzuelo una vez más.
Siempre un iluso.
Nuestra estrella se agotó
Y era mi lujo.
Ella fue por esa vez
mi héroe vivo, bah,
fue mi único héroe
en este lío.
La más linda del amor,
que un tonto ha visto soñar.
Metió, metió mi rocanrol bajo este pulso.
En el sol de la introducción hacé G9-G
Acordes:
Aguanten los Redondos!




[Esa estrella era mi lujo chords][Esa estrella era mi lujo cifra]
© LaCuerda.net · aviso legal · privacidad · es · en · pt · contacto