Acordes de Guitarra » P »Patricio Rey y sus Redonditos de Ricota » Ji Ji Ji (Tab)

Ji Ji Ji
Patricio Rey y sus Redonditos de Ricota

Letras, Acordes y Tabs para Guitarra, Bajo y Ukulele

  • Bm - F#7
    Bm - F#7
    
    Bm                             F#7
    En este film, velado en blanca noche,
    F#7                    Bm
    El hijo tenaz de tu enemigo,
    Bm                        F#7
    El muy verdugo cena distinguido,
    F#7                               Bm
    Una noche de cristal que se hace añicos.
    
    D           A
     No lo soñé eeeeeee!...
    G                          Bm
     se enderezó y brindó a tu suerte.
    D           A
     No lo soñé eeeeeee!...
    G                       Bm
     y se ofreció mejor que nunca ,
    
  •            Dm       Dm       A7/G     A7/G    A7/G     A7/G      Dm        Dm
    e----------1--------1--------3--------3--------3--------3--------1---------1--------||
    b----------3--------3--------2--------2--------2--------2--------3---------3--------||
    g----------2--------2--------0--------0--------0--------0--------2---------2--------||
    d---000000-0-000000-0-222222---222222---222222---222222---000000-0--000000-0--------||x2
    a-----------------------------------------------------------------------------------||
    E-----------------------------------------------------------------------------------||
    
    1º Frase de Guitarra del estribillo:      2ª Frase de guitarra del estribillo
    e--3-1-------1-------||                   e--3-1-------1------------||
    b------3-1-3---3-----||                   b------3-1-3---3--1-3-1-3-||
    g--------------------||                   g-------------------------||
    d--------------------||                   d-------------------------||
    a--------------------||                   a-------------------------||
    E--------------------||                   E-------------------------||
    
    Sigue haciendo la Intro
    
               Dm      Dm              A7/G     A7/G
    En este film, velado en blanca noche
    
  •         REm x2           LA7 x2          MIm7(b5)x2        REm x2
    e|---------------1-|----------------|--------------3-|-------------1-|
    B|---------------3-|--------------2-|--------------2-|-------------3-|
    G|---------------2-|----------------|--------------3-|-------------2-|
    D|-0-0-0-0-0-0-----|-2-2-2-2-2-2--2-|-2-2-2-2-2-2--2-|0-0-0-0-0-0-0--|
    A|-----------------|----------------|----------------|---------------|
    E|-----------------|----------------|----------------|---------------|
    
    Verso 1: Riff 1
    REm                              LA7
     En este film, velado en blanca noche
    MIm7(b5)                 REm
     El hijo tenaz de tu enemigo
    REm                        LA7
    El muy verdugo cena distinguido
    MIm7(b5)                           REm   DO5
    Una noche de cristal que se hace añicos
    
    Estribillo:
    
    
  •               Dm            Em7(b5)         E dim 7               Dm
    ||---------------||---------------||---------------||---------------||
    ||-------------6-||-------------8-||-------------5-||-------------6-||Todo
    ||o------------7o||o------------7o||o------------3o||o------------7o||por
    ||o------------7o||o------------8o||o------------5o||o------------7o||2
    ||-5-5-5-5-5-5-5-||-7-7-7-7-7-7-7-||-4-4-4-4-4-4-4-||-5-5-5-5-5-5-5-||
    ||---------------||---------------||---------------||---------------||
    
    (parte 1)Verso:
    Dm                              Em7(b5)
     En este film, velado en blanca noche
    Edim7                    Dm
     El hijo tenaz de tu enemigo
    El muy verdugo cena distinguido
    Una noche de cristal que se hace añicos
    
    Estribillo:
    
     F5             C5
     No lo soñé eeeeeee!                              Riff 1:
    
  •            REm      REm      SOL6     SOL6    DO#Dim   DO#Dim   REm       REm
    e---------1--------1|-------3--------3|-------3--------3|-------1---------1-----|
    B---------3--------3|-------3--------3|-------2--------2|-------3---------3-----|
    G---------2--------2|-------3--------3|-------3--------3|-------2---------2-----|
    D--000000-0-000000-0|222222---222222--|222222-2-222222-2|000000-0--000000-0-----|
    A-------------------|-----------------|-----------------|-----------------------|
    E-------------------|-----------------|-----------------|-----------------------|
      P.M....   .....    ......   ......   ......   ......   ......    ......
    
      *guitarra 2 (sin distorcion)    
                   
               REm      REm     SOL6     SOL6     DO#Dim   DO#Dim   REm       REm
    e---------1--------1|-------3--------3|-------3--------3|-------1---------1-----|
    B---------3--------3|-------3--------3|-------2--------2|-------3---------3-----|
    G---------2--------2|-------3--------3|-------3--------3|-------2---------2-----|
    D---------0--------0|-------2--------2|-------2--------2|-------0---------0-----|
    A-------------------|-----------------|-----------------|-----------------------|
    E-------------------|-----------------|-----------------|-----------------------|
                                                                                                 
      * 'Semilla' Bucciarelli (bajo)
    
  • Dm                Em7(b5)           Cdim 7            Dm
    |----------------|-----------------|-----------------|-----------------|
    |--------------6-|---------------8-|---------------8-|---------------6-|
    |--------------7-|---------------7-|---------------6-|---------------7-|
    |--------------7-|---------------8-|---------------5-|---------------7-|X2
    |5-5-5-5-5-5-5-5-|-7-7-7-7-7-7-7-7-|-4-4-4-4-4-4-4-4-|-5-5-5-5-5-5-5-5-|
    |----------------|-----------------|-----------------|-----------------|
    
    Verso 1:
    
    Dm                                   Em7(b5)
     En este film, velado en blanca noche
    Cdim7                        Dm
     El hijo tenaz de tu enemigo
                                    Em7(b5)
    El muy verdugo cena distinguido
    Cdim7                                   Dm - C5*
    Una noche de cristal que se hace añicos
    
    *: Antes de pasar al estribillo hace un pase con C5
    
  •   REm   SOL  LA
    e|----|----|-----------------------|--------------------
    B|----|----|----14-15-14-----------|--------------------
    G|----|----|-------------13-12-13~-|--------------------
    D|----|----|-----------------------|--------------------
    A|----|----|-----------------------|--------------------
    E|----|----|-----------------------|--------------------
    
       REm        SOL                 LA
    e|-----------15(17)-151515-13-15-15(17)-15-13-----------
    B|-----15-13---------------------------------15(16)-13--
    G|------------------------------------------------------
    D|------------------------------------------------------
    A|------------------------------------------------------
    E|------------------------------------------------------
    
      REm          SOL              LA                  REm
    e|------------------------------------------------------
    B|------------------------12/13-12----------------------
    G|------------121314131413--------12-11-----------------
    
  • verso: en este film...
    
    G-------------------------------------------
    D-------------------------------------------
    A----5----5----7---7---4---4---5---5--5----5
    E-------5----5---5---5---5---5---5---5---5--
    
    estribillo:
    
    G-------------------------------------------
    D-------------------------------------------
    A-------------------------------------------
    E--1111---8888---6666---10-10-10-10---------
    
    G-------------------------------------------
    D-------------------------------------------
    A-------------------------------------------
    E--6666--1111--3333--5555555-----------------
    
    
    verso: este film ...
    G-------------------------------------------
    D-------------------------------------------
    A----5----5----7---7---4---4---5---5--5----5
    E-------5----5---5---5---5---5---5---5---5--
    
    estribillo:
    
    G-------------------------------------------
    D-------------------------------------------
    A-------------------------------------------
    E--1111---8888---6666---10-10-10-10---------
    
    G---------------------
  • +
    ¡Colabora con nosotros!
    Envíanos tu versión de esta canción
  • Tutorial
    HD
    Explicado - Como tocar "Jijiji" de Patricio Rey y sus Redonditos de Ricota en el bajo tutorial#166
    13:18

Letra de Ji Ji Ji
En este film, velado en blanca noche,
El hijo tenaz de tu enemigo,
El muy verdugo cena distinguido,
Una noche de cristal que se hace añicos.
No lo soñé eeeeeee!...
se enderezó y brindó a tu suerte.
No lo soñé eeeeeee!...
y se ofreció mejor que nunca ,
no mires por favor, y no prendas la luz,
la imagen te desfiguró.
Este film da una imagen exquisita,
esos chicos son como bombas pequeñitas,
el mejor camino a la cueva del perico,
para tipos que no duermen por la noche.
No lo soñé eeeeeee!...
se enderezó y brindó a tu suerte,
No lo soñé eeeeeee!...
y se ofreció mejor que nunca,
no mires por favor, y no prendas la luz,
la imagen te desfiguró...
El montaje final es muy curioso,
es en verdad realmente entretenido,
Vas en la oscura multitud desprevenido,
tiranizando a los que te han querido.
No lo soñé eeeeeee!...
se enderezó y brindó a tu suerte,
No lo soñé eeeeeee!...
y se ofreció mejor que nunca,
No lo soñé eeeeeee!...
ibas corriendo a la deriva,
No lo soñé eeeeeee!...
los ojos ciegos bien abiertos,
no mires por favor, y no prendas la luz,
la imagen te desfiguró...




[Ji Ji Ji chords][Ji Ji Ji cifra]
© LaCuerda.net · aviso legal · privacidad · es · en · pt · contacto