Acordes de Guitarra » P »Patricio Rey y sus Redonditos de Ricota » Motorpsico (Tab)

Motorpsico
Patricio Rey y sus Redonditos de Ricota

Letras, Acordes y Tabs para Guitarra, Bajo y Ukulele

  • Bb                       Dm
    Siempre tengo a mi lado a mi dios
    Bb                 Dm
    (así me das más...)
    Bb                   Dm
    Un susurro muy especial
    Bb                 Dm
    (así me das más...).
    C                      Bb           C                Dm
    "Motor psico": el mercado de todo amor
    C                    Bb          C                 Dm  
    Lo que debes, cómo puedes quedártelo.
    
    
    Junto a la hemoglobina me fui
    y ya no sangro más.
    De la nada a la gloria me voy
    (¡así me das más...!)
    
    "Motor psico": el mercado de todo amor
    
  • e|-------------|-------------|-------------|-----------|
    B|-------------|-------------|-------------|-----------|
    G|-------------|-------------|-------------|-----------|
    D|-------------|-------------|-------------|---7-5-----|
    A|-5-7-5-7-8---|---------5-5-|-5-7-5-7-8---|-------8-5-|
    E|-----------6-|-6-8-6-8-----|-----------6-|-6---------|
                 A#            Dm            A#          Dm
    
    e|-----------|-----------|-------------------|
    B|-----------|-----------|-------------------|
    G|-----------|-----------|-------------------|
    D|---7-5-7---|---5-3-5---|---3-2---5-3-2-----|
    A|-5-------3-|-3-------1-|-1-----3-------3-5-|
    E|-----------|-----------|-------------------|
               C           A#        C         Dm
    
    A#                 Dm         A#            Dm
    Siempre tengo a mi lado mi dios (así me das más ...)
    A#          Dm           A#             Dm
    Un susurro muy especial ... (así me das más ...)
    
  •     REm         SIb            REm          SIb
    E|-----------|-------------|----------------|-------------||
    B|-----------|-------------|----------------|-------------||
    G|-----------|-------------|----------------|---2-0-------||
    D|-0-2-0-2-3-|-----------0-|-0-2-0-2-3------|-------3-0---||X2
    A|-----------|1-1-3-1-3----|------------1---|1------------||
    E|-----------|-------------|----------------|-------------||
    
    Guitarra2:        SIb          REm             SIb  *                  
    E|-----------|--6-6----------|-1-1-----------|-6-6-6-----------|                         |
    B|-----------|--6-6----------|-3-3-----------|-6-6-6-----------|                         |
    G|----ƒ------|--0-0-xxxx-xxxx|-2-2--xxxx-xxxx|-------xxxx-xxxx-| REm - Sib * - Rem - Sib |
    D|-----------|------xxxx-xxxx|-0-0--xxxx-xxxx|-------xxxx-xxxx-|                         |
    A|-----------|---------------|---------------|-----------------|                         |
    E|-----------|---------------|---------------|-----------------|                         |
    
    BAJO:            SIb           RE               SIb
    G|-----------|---------------|---------------|---------|  
    D|-----------|---------------|---------------|---------|  RE - Sib  - Re - Sib               
    A|----ƒ------|1---1/---------|-5--5---5/-----|1--1/----|                         
    
  • e|-------------|-------------|-------------|-----------|
    B|-------------|-------------|-------------|-----------|
    G|-------------|-------------|-------------|-----------|
    D|-------------|-------------|-------------|---7-5-----|
    A|-5-7-5-7-8---|---------5-5-|-5-7-5-7-8---|-------8-5-|
    E|-----------6-|-6-8-6-8-----|-----------6-|-6---------|
                 A#            Dm            A#          Dm
    
    e|-----------|-----------|-------------------|
    B|-----------|-----------|-------------------|
    G|-----------|-----------|-------------------|
    D|---7-5-7---|---5-3-5---|---3-2---5-3-2-----|
    A|-5-------3-|-3-------1-|-1-----3-------3-5-|
    E|-----------|-----------|-------------------|
               C           A#        C         Dm
    
    A#                 Dm         A#            Dm
    Siempre tengo a mi lado mi dios (así me das más ...)
    A#          Dm           A#             Dm
    Un susurro muy especial ... (así me das más ...)
    
  • e|-------10~--------------------------------------------------------------|
    B|-----10~~~------------8------------------------11-10~-------------------|
    G|-3/10~~~~~--------7----5/12--10----------10~---------12br-10---12~-12-10|
    D|--------------------------------12~-10-12---12---------------12---------|
    A|--------------8---------------------------------------------------------|
    E|------------6---6-------------------------------------------------------|
    
                                                            D5
                                                         V A   V V
    e|---------------------------------------------------------------|
    B|-11-10---------------------------------------------------------|
    G|-------12-12-10-----------3-3-2-2-----------------7x-7x-7x-7x--|
    D|----------------12-10-12~---------5-5-3-3-----7-7-7x-7x-7x-7x--|
    A|------------------------------------------5-5-5-5-5x-5x-5x-5x--|
    E|---------------------------------------------------------------|
    
    
    
    
                         Bb5       Dm PM
    
  • intro:
    g|---------------------------------------------------------------------
    d|---------------------------------------------------------------------
    a|-------------------------------5(dejar sonar un rato)--5-5---------5-
    e|---6(dejar sonar un rato)-6-6------------------------------6----5^6--
    
    g|-----------------------------------|
    d|-----------------------------------|
    a|--5-5-----------5-----5-5---------5|
    e|------6-----5^6-----------6---5^6--|
    
     R1:
    
    g|---------------------------------------------------------|
    d|---------------------------------------------------------|
    a|-5--5--3(dejar sonar)---3--3--1(dejar sonar)-1--3--3-0--5| x2
    e|---------------------------------------------------------|
    
     R2:
    
    g|-------------------------------------------------------|
    d|-------------------------------------------------------|
    a|--5--5-------------5(dejar sonar)---5--5--------------5| x2
    e|-------6-------5^6-----------------------6--------5^6--|
    
     R1 x2
    
    
     R2 X2
    
     R1 x2
    
    
     Solo: entra con la b
  • +
    ¡Colabora con nosotros!
    Envíanos tu versión de esta canción

Letra de Motorpsico
Siempre tengo a mi lado a mi dios
(así me das más...)
Un susurro muy especial
(así me das más...).
"Motor psico": el mercado de todo amor
Lo que debes, cómo puedes quedártelo.
Junto a la hemoglobina me fui
y ya no sangro más.
De la nada a la gloria me voy
(¡así me das más...!)
"Motor psico": el mercado de todo amor
Lo que debes, cómo puedes quedártelo.
Estoy fichando de acuerdo al dolor
(jugando de más...).
Mi dios no juega dados, quizás...
...esté a mi favor
"Motor psico": el mercado de todo amor
Lo que debes, cómo puedes quedártelo.
TodounPalo: Si Tenes Canciones copate y comunicate conmigo




[Motorpsico chords][Motorpsico cifra]
© LaCuerda.net · aviso legal · privacidad · es · en · pt · contacto