Acordes de Guitarra » P »Patricio Rey y sus Redonditos de Ricota » Tarea Fina (Tab)

Tarea Fina
Patricio Rey y sus Redonditos de Ricota

Letras, Acordes y Tabs para Guitarra, Bajo y Ukulele

  •  DO
    Quemando la turbina te escapas
    vas a volver a herirme otra vez?
           LAm
    en tu ternura esta acechándome
    una buena traición de mujer
    que hecha hielo y brasas en mi corazón
       SOL
    (fumando en la oscuridad)
    
    
    Sobrio no te puedo ni hablar
    estoy perdido sin mi estupidez
    un auto guapo va a venir por vos
    y nada va a cambiar
    vas a vivir en le delta en un lanchón
    buscando de que reír
    
     SIb                  FA
    CON LAS PIERNAS MÁS BONITAS
    
  •   C
    Quemando la turbina te escapás.
    ¿Vas a volver a herirme otra vez?
             Am
    En tu ternura está acechándome
    Una buena traición de mujer
               F
    Que echa hielo y brasas en mi corazón
      G
    Fumando en la oscuridad.
    
      C
    Sobrio no te puedo ni hablar.
    Estoy perdido sin mi estupidez.
              Am
    Un auto guapo va a venir por vos
    Y nada va a cambiar.
            F
    Vas a vivir en el delta en un lanchón
        G
    
  •         C                          A
    e|-------------(3)--3--------|--4/-5-x-5-5-5-5--5--7------||
    B|-----(5)--5-6------6-5-----|--4/-5-x-5-6-5-5--6--8------||
    G|-----(5)--5-----------(5)--|--4/-5-x-5-5-5-5--5--7------||
    D|-----(5)-------------------|----------------------------||
    A|---------------------------|----------------------------||
    E|---------------------------|----------------------------||
    
    
    Esta es la parte que cambia a (A). Hace lo mismo pero se qda en A al final
    e|-------------(3)--3--------|--4/-5-x-5-5-5-5--5-x-5------||
    B|-----(5)--5-6------6-5-----|--4/-5-x-5-6-5-5--5-x-5------||
    G|-----(5)--5-----------(5)--|--4/-5-x-5-5-5-5--5-x-5------||
    D|-----(5)-------------------|-----------------------------||
    A|---------------------------|-----------------------------||
    E|---------------------------|-----------------------------||
    
         A                    al final de la 4ta vez
    e|-----------------|     |-------------------||
    B|-----------------|     |---------5-5-------||
    
  •           DO                DO               DO                LA             LA
    e|---------------------------------------------------------|--------------------------------|
    B|---------------------------------------------------------|--------------------------------|
    G|--------0---------------------------0----------0---------|--------------------------------|
    D|------2---(2)~------2-0-----------2---(2)~--------0/-(2)-|--------------------------------|
    A|--3-3-----------3-3-----(3)~--3-3----------3-3-----------|---------0-5-(7)--------0-5-(7)-|
    E|---------------------------------------------------------|--5-5--8----------5-5--8--------|
    PM  ...           ...           ...          ...              ...             ...
          LA                  SOL
    e|-------------------|----------------||
    B|-------------------|-------8--8--8--||
    G|-------------------|-(7)---7--7--7--||
    D|-------------5-2-/-|-(5)---5--5--5--||
    A|----------0--------|----------------||
    E|---5-5--8----------|----------------||
     PM  ...      
    
    BAJO:
             DO              *        LA                  SOL
    G|------------------|--|-----|------------------|--|----------------------|  
    
  • Intro:
    G|--------------|x4 |--------------|x2
    D|---2-----2----|   |--------------|
    A|-3---3-3---3--|   |---4-----4----|
    E|--------------|   |-5---5-5---5--|
    
    Verso: **2 VECES**
    G|-------------|x8 |-------------|x4
    D|---2-----2---|   |-------------|
    A|-3---3-3---3-|   |---4-----4---|
    E|-------------|   |-5---5-5---5-|
    
     |-------------|x2 |-------------|x2
     |-------------|   |-------------|
     |---0-----0---|   |---2-----2---|
     |-1---1-1---1-|   |-3---3-3---3-|
    
    Coro:
    G|--------------------------------|
    D|--------------------------------|
    A|-1-111-11-111-1-----------------|
    E|----------------1-111-11-111-1--|
    
     |--------------------------------|
     |--------------------------------|
     |-3-333-33-333-3-1-111-11-111-1--|
     |--------------------------------|
    
     |--------------------------------|
     |--------------------------------|
     |--------------------------------|
     |-3-333-33-333-3-1-111-11-111-1--|
    
     |--------------------------------|
     |------------------------
  • Este es tab muy completo de este temazo
    y esta muy bien sacado
    
    Intro 
    |----------------|----------------|----------------|----------------|
    |----------------|----------------|----------------|----------------|
    |3-----3---------|3-----3---------|3-----3---------|3-----3---------|
    |--5-3-----5-3-5-|--5-3-----5-3-5-|--5-3-----5-3-5-|--5-3-----5-3-5-|
      
    |----------------|----------------|----------------|----------------|
    |----------------|----------------|----------------|----------------|
    |----------------|----------------|----------------|----------------|
    |5-3-0-5---3-0-3-|5-3-0-5---3-0-3-|5-3-0-5---3-0-3-|3---3---3-------|
    
    Verso
    |----------------|----------------|----------------|----------------|
    |----------------|----------------|----------------|----------------|
    |3-----3---------|3-----3---------|3-----3---------|3-----3---------|
    |--5-3-----5-3-5-|--5-3-----5-3-5-|--5-3-----5-3-5-|--5-3-----5-3-5-|
    
    |----------------|----------------|----------------|------
  • Armonica en Do (c)
    (1:40)
    las mas lindas piernas que vi..
    (mientras dice: y un juego rico de amores) hace esto:
    
    (3tue)(4)4567...4(4)3
    
    despues en la 2da parte hace lo mismo..
    
    Solo final: (3:15)
    
    Armonica en Fa (f)
    
    (4tue)..(4tue---2)(2)
    (3ta)4 (4tue)..(4tue---2)(2)
    (3ta)4 (4tu) (4)..(4tue---2)(2)
    (3ta)4(3).. se engancha cn la armonica en DO
    y hace esto:
    (4tue)(4t)(4t)(4tue)(4t)(4t)(4tue)(4t)(4t)(4tue)(4t)(4tue) (4)<>(5)
    6(5)5(4ta)4(3tue)(2)3(2tue)
    
    y termina cn la armonica en Re (d)
    
    (3ta)4 (4tue)(5)(4)(4u)--(2u)
    
    
    Mi unico heroe en este lio..
    
    cualquier cosa diganme.. denis_rnr27@hotmail.com
  • +
    ¡Colabora con nosotros!
    Envíanos tu versión de esta canción

Letra de Tarea Fina
Quemando la turbina te escapas
vas a volver a herirme otra vez?
en tu ternura esta acechándome
una buena traición de mujer
que hecha hielo y brasas en mi corazón
(fumando en la oscuridad)
Sobrio no te puedo ni hablar
estoy perdido sin mi estupidez
un auto guapo va a venir por vos
y nada va a cambiar
vas a vivir en le delta en un lanchón
buscando de que reír
CON LAS PIERNAS MÁS BONITAS
LAS MÁS LINDAS PIERNAS QUE VI
Y UN JUEGO RICO DE AMORES
CAÍDA LIBRE PARA DOS
Le das la copa al fin, vencedor
tarea fina, perdida en mi soledad
no se si no me gusta mas que el rock
(nunca lo vi llorar)
si no va sin freno no anda bien
ni me encadena a su show
CON LAS PIERNAS MÁS BONITAS
LAS MÁS LINDAS PIERNAS QUE VI
Y UN JUEGO RICO DE AMORES
CAÍDA LIBRE PARA DOS




[Tarea Fina chords][Tarea Fina cifra]
© LaCuerda.net · aviso legal · privacidad · es · en · pt · contacto