Acordes de Guitarra » P »Patricio Rey y sus Redonditos de Ricota » un angel para tu soledad (Tab)

un angel para tu soledad
Patricio Rey y sus Redonditos de Ricota

Letras, Acordes y Tabs para Guitarra, Bajo y Ukulele

  • Intro: (D G) X4 (A G D/F# G)X4
    
    D                            G
    Ya sufriste cosas mejores que estas
    D
    Y vas a andar está ruta hoy
      G
    Cuando anochezca
    D
    Tu esqueleto te trajo hasta aquí
    G
    Con un cuerpo hambriento veloz
    D
    Y aquí ¡gracias a Dios!
               G
    Uno cree en lo que oye.
    A        G      D/F#  G
    Ángel de la soledad
    A       G     D/F#  G
    Y de la desolación
    
  • Intro: (D G) X4 (A G D/F# G)X4
    
    D5                    G
    Ya sufriste cosas mejores que estas
    D5
    Y vas a andar está ruta hoy
      G
    Cuando anochezca
    D5
    Tu esqueleto te trajo hasta aquí
    G
    Con un cuerpo hambriento veloz
    D5
    Y aquí ¡gracias a Dios!
          G
    Uno cree en lo que oye.
    A        G      F#m  Em
    Ángel de la soledad
    A       G     F#m  Em
    Y de la desolación
    
  • e ----------------
    b ----------------
    g ----------------
    d --7-7-7-7-5-4---
    a --5-5-5-------5-
    E ----------------
    
    e -------------------
    b -------------------
    g -------------------
    d --5--5-5-----------
    a --5--5-5-----2-3-5-
    E --3--3-3-3-5-------
    
    REPITE 4 VECES Y LUEGO CAE A
    
    LAM - SOLM - FA#m - MIM (REPITE 4 VECES)
    
    
    RE                SOL 
    
  •     RE                                 SOL
    e|-----------------------------|----------------------------|
    B|-3---------------------------|3~~~~~-3-3-----3------------|
    G|-2----------2-2-------2-0----|-------0-0---0--------------|  REPITE X 4 
    D|-0-0-0-0-0--0-0--0-0------4-0|-----------------0----------|    VECES
    A|-----------------------------|----------------------0-2-3-|
    E|-----------------------------|----------------------------|
         P.M....       ...                .....
    
    *'Semilla' Bucciarelli (BAJO)
      RE                                  SOL
    G|-----------------------------|----------------------------|
    D|-----------------------------|----------------------------| REPITE X4
    A|-5-5-5-5-5--5-0--5-5-5-5--5--|----------------------0-2-3-|  VECES
    E|----------------------------0|3-3-3-3-3--3-0--3-3-3-------|
       PM..........    ..........   ............    .....
    
    
    *SKAY BEiLINSON (Guitarra)
    
    
  •  Intro:
    G|-----------------------------------|x4
    D|-----------------------------------|
    A|--------------------------5-4-5-7--|
    E|-5(x7)-3(x7)-2(x7)-0(x7)-----------|
    
     Pre-Verso:
    G|---------------------|x4
    D|---------------------|
    A|---------------------|
    E|-5--5-3--3-2--2-0-0--|
    
     Verso:
    G|-----------------------------------|x4
    D|-----------------------------------|
    A|--------------------------5-4-5-7--|
    E|-5(x7)-3(x7)-2(x7)-0(x7)-----------|
    
     Coro:
    G|---------------------|x4
    D|---------------------|
    A|---------------------|
    E|-5--5-3--3-2--2-0-0--|
     
     Verso:
    G|-----------------------------------|x2
    D|-----------------------------------|
    A|--------------------------5-4-5-7--|
    E|-5(x7)-3(x7)-2(x7)-0(x7)-----------|
    
     |--------------------------------|*= 7 veces
     |--------------------------------|
     |----1*----5*-7*-----------------|
     |-5*----3*-------5*-3*-5*-3*-5*--|
    
     Puente:
    G|----------|----------|x2
    D|----------|----------|
    A|----------|------
  • intro
    1/----------------|------------------|(x3)
    2/----------------|------------------|
    3/-5-555--5-555-5-|-------------2-33-|
    4/------5---------|3-333-0-3-33------|
    
    1/----------------|-------------------|
    2/----------------|-------------------|
    3/-5-555--5-555-5-|-------------------|
    4/------5---------|3-333-0-3-33-2-3-4-|
    
    estrbillo
    1/---|----|----|----|----|----|----|----|----|----|----|-----|
    2/---|----|----|----|----|----|----|----|----|----|----|-----|
    3/---|----|----|----|----|----|----|----|----|----|----|-----|
    4/-5-|5-3-|3-2-|2-3-|3-5-|5-3-|3-2-|2-3-|3-5-|5-3-|3-2-|2-00-|
    
    canto
    1/----------------|------------------|
    2/----------------|------------------|
    3/-5-555--5-555-5-|-------------2-33-|
    4/------5---------|3-333-0-3-33------|
    
    1/----------------|-------------------|
    2/----------------|-------------------|
    3/-5-555--5-555-5-|-------------------|
    4/------5---------|3-333-0-3-33-2-3-4-|
    
    inermedio
    1/-------|--------|--------|--------|--------|-------|----|--------|
    2/----
  • +
    ¡Colabora con nosotros!
    Envíanos tu versión de esta canción
  • Tutorial
    HD
    Como tocar Un angel para tu soledad
    7:47

Letra de un angel para tu soledad
Ya sufriste cosas mejores que estas
Y vas a andar está ruta hoy
Cuando anochezca
Tu esqueleto te trajo hasta aquí
Con un cuerpo hambriento veloz
Y aquí ¡gracias a Dios!
Uno cree en lo que oye.
Ángel de la soledad
Y de la desolación
Preso de tu ilusión
Vas a bailar, a bailar... bailar
Es tan simple así
(no podes elegir)
Claro que no siempre,
¿Ves? resulta bien.
Atado con doble cordel
(el de simular)
No querés girar maniatado,
Querés faulear...
Y arremolinar.
Arreglo sobre
Medís tu acrobacia y saltas
Tu secreto es: “la suerte
Del principiante
No puede fallar”
Alguna vez, quizá,
Se te ve la mano
Y las llamas en pena
Invaden tu cuerpo
Y caes en manos
Del Ángel de la soledad
Y él ¡Gracias a Dios!
Tampoco cree en lo que oye.
Ángel de la soledad y de la desolación
Preso de tu ilusión vas a bailar a bailar... bailar.




[un angel para tu soledad chords][un angel para tu soledad cifra]
© LaCuerda.net · aviso legal · privacidad · es · en · pt · contacto