Tablatura para Bajo de Patricio Rey y sus Redonditos de Ricota: Nuestro amo juega al esclavo
Conexión · Inscripción
Letras y Acordes
Pantalla Completa
Imprimir
Versión Texto
Añadir Favorito
Otras Versiones

Mostrar Diagramas
Desfile Automático
Formato del Texto


Patricio Rey y sus Redonditos de Ricota
Nuestro amo juega al esclavo(BAJ)
calidad:
redo0642
AUTOR: Solari/Beilinson
ALBUM: Bang Bang estas liquidado/En directo
Enviado por Sebastián
Intro
G|---|x16
D|---|
A|---|
E|-0-|

 |-------------|x8
 |-------------|
 |-5--0--5-5-0-|
 |-------------|

Verso
G|-----------------|x4
D|-----------------|
A|-7--7--7--5-5-0--|
E|-----------------|

Puente 1
G|-------------|x8
D|-------------|
A|-5--0--5-5-0-|
E|-------------|

Verso
G|-----------------|x4
D|-----------------|
A|-7--7--7--5-5-0--|
E|-----------------|

Puente 2
G|---------------|
D|---------------|
A|-3(x16)-5(x16)-|
E|---------------|

 |-----------------------|x8
 |---------------------7-|
 |-0-3-5-5-6-5-3-5-0-3---|
 |-----------------------| 

 |------------|x4
 |-------4----|
 |-5-0-5---5--|
 |------------|

 |-------------------|x2
 |---2-5-----4-7-----|
 |-3-----3-5-----5-7-|
 |-------------------|

Verso
G|-----------------|x4
D|-----------------|
A|-7--7--7--5-5-0--|
E|-----------------|

Puente 1
G|-------------|x8
D|-------------|
A|-5--0--5-5-0-|
E|-------------|

Verso
G|-----------------|x4
D|-----------------|
A|-7--7--7--5-5-0--|
E|-----------------|

Final
G|---------------|
D|---------------|
A|-3(x16)-5(x16)-|
E|---------------|

 |-----------|x10
 |-----------|
 |-5-0-5-5-0-|
 |-----------|

 |-----------------|x2
 |---2-5-----4-7---|
 |-3-----3-5-----5-|
 |-----------------|

 |-----------|x2
 |-----------|
 |-5-0-5-5-0-|
 |-----------|

 |-----------------|x2
 |---2-5-----4-7---|
 |-3-----3-5-----5-|
 |-----------------|

 |-----------|x2
 |-----------|
 |-5-0-5-5-0-|
 |-----------|

 |-----------------|x2
 |---2-5-----4-7---|
 |-3-----3-5-----5-|
 |-----------------|

 |-----------|x2
 |-----------|
 |-5-0-5-5-0-|
 |-----------|

 |-----------------|x2
 |---2-5-----4-7---|
 |-3-----3-5-----5-|
 |-----------------|

Escuchá la canción para saber el ritmo
Este fichero es trabajo propio de su transcriptor y representa su interpretación personal de la canción. El material contenido en esta página es
para exclusivo uso privado, por lo que se prohibe su reproducción o retransmisión, así como su uso para fines comerciales.
© LaCuerda.net · Aviso Legal · Privacidad