Acordes de Guitarra » P »Patricio Rey y sus Redonditos de Ricota » Mi genio amor (Tab)

Mi genio amor
Patricio Rey y sus Redonditos de Ricota

Letras, Acordes y Tabs para Guitarra, Bajo y Ukulele

  • Em                  D   Em
    Si empiezo a desconfiar de mi suerte
                 D
    estoy perdido,
    Em          D    Em                     D
    Pues tengo ideas cada vez menos atrevidas.
    Em        D
    Pero cerca,
    Em                       D
    aquí cerca, el lobo aúlla
    Em        D Em
    Despertando al mal hombre,
               D
    al mago bueno
    C            Em7/C
    Con un corazón que no puede
        Am
    cumplir más promesas ya.
    
    (Igual Que El Primer Verso)
    
  • ------------------------------------------------------------------------
    Riff:
    
    ||-----------------|
    ||--1-0-----------0|
    ||------0---------0|
    ||--------2-------2|   El acorde al final del Riff engancha con el
    ||----------2-----2|   principio de la siguiente línea.
    ||------------0---0|
    
    Intro:
    
      Em   (Riff)    Em    (Riff)
    
    
    Em
    SI empiezo A desconfiar de mi suerte, estoy perdido,  (Riff)
    Em
    pues tengo ideas cada vez menos atrevidas.   [Riff]
    Bm
    
  • Em
    Si empiezo a desconfiar de mi suerte
    estoy perdido,
    Em
    pues tengo ideas cada vez menos atrevidas.
    Bm
    Pero cerca,
    aquí cerca, el lobo aúlla
    Em
    despertando al mal hombre,
    al mago bueno
    Em             Em/G 
       con un corazón que no puede
         Em/C             Em*
    cumplir más promesas ya.
    
    
    Los genios son buenos servidores
    y malos amos.
    Si les has visto primorosos caíste en el lazo,
    
  • ||-----------------|
    ||0-1-0-----------0|
    ||------0---------0|
    ||--------2-0-----2|
    ||----------------2|   Em  D9
    ||------------0---0|
    
    Intro:
    
    Em                   D9   Em                                  D9
    SI empiezo A desconfiar de mi suerte, estoy perdido,
    Em                    D9   Em                                  D9
    pues tengo ideas cada vez menos atrevidas.
    Em           D9          Em                 D9
    Pero cerca, aquí cerca el lobo aúlla
    Em                D9          Em
    ahuyentando al mal hombre, al mago bueno..
    C9             G                     Am
       Con un corazón que no puede cumplir más promesas ya.
    
    
  •    DO5                SI5              LA5
    e|------------------------------------------------------|--|------------|
    B|------------------------------------------------------|--|-/8--8------|
    G|------------------------------------------------------|%-|-------9-7--| y despues--
    D|1010101010101010--9-9-9-9-9-9-9-9-7-7-7-7-7-7-7-7---7-|--|-----------9|
    A|1010101010101010-1010101010101010-7-7-7-7-7-7-7-7---7-|--|------------|
    E|-8-8-8-8-8-8-8-8--7-7-7-7-7-7-7-7-5-5-5-5-5-5-5-5---5-|--|------------|
       
     RIFF A     
    e|-----------------------7--(7)--|--|
    B|--8-5----8-5----8-5----8--(7)-7|--|
    G|------7------7------7----------|X4|
    D|-------------------------------|--|
    A|-------------------------------|--|
    E|-------------------------------|--|
                                                                      _____________________
    BAJO: DO                SI5             LA                       | arreglo  X4         |
    G|--------------------------------------------------------|---|------------------------------|
    D|--------------------------------------------------------|---|------------------------------|
    A|3-3-3-3-3-3-3-3-2-2-2-2-2--2-2-2-2--0-0-0-0-0-0-0-0---0-|---|-10-7---10-7---10-7-----10-(9)|
    
  • +
    ¡Colabora con nosotros!
    Envíanos tu versión de esta canción
  • Tutorial
    HD
    Explicado - Como tocar "Mi genio amor" de Los Redondos en el bajo tutorial#218
    11:07

Letra de Mi genio amor
Si empiezo a desconfiar de mi suerte
estoy perdido,
pues tengo ideas cada vez menos atrevidas.
Pero cerca,
aquí cerca, el lobo aúlla
despertando al mal hombre,
al mago bueno
con un corazón que no puede
cumplir más promesas ya.
Los genios son buenos servidores
y malos amos.
Si les has visto primorosos caíste en el lazo,
tu bolsillo es más profundo que su gracia
y calcular su coraje
puede llevarle la vida
a un corazón que no puede
cumplir más promesas ya.

Yo te saqué un día de allí
y me encadené,
te obedecí hasta donde pude
mi genio amor.
Te pude apartar de mi corazón
en otro crimen más
y me alejé de tu seducción
y tu dulce voz.

Si empiezo a desconfiar de mi suerte...
Yo te saque un día de allí...
No estoy del todo seguro el Bm en los versos, pero
mal no queda.
Cuando hagas Em ('Si empiezo a desconfiar...', y en
partes como ésa), suena bueno si hacés Em y cuando
termina el verso, Em/G.
Acordes:
También podés hacer todo esto con cejilla.
Saludos,
Angel Olivera
Mendoza - Argentina
Aguanten los Redondos!




[Mi genio amor chords][Mi genio amor cifra]
© LaCuerda.net · aviso legal · privacidad · es · en · pt · contacto