Acordes de Guitarra » P »Patricio Rey y sus Redonditos de Ricota » El pibe de los astilleros (Tab)

El pibe de los astilleros
Patricio Rey y sus Redonditos de Ricota

Letras, Acordes y Tabs para Guitarra, Bajo y Ukulele

  •   Em G D G  -  Em G D Em , repite.
    
    
    
    Em            G            C           D
    Fue unos meses a caseros y su strato roja
    
    Em            G            C              D
    Se hizo el torbellino que hoy suena en la radio
    
    Em         G         C         D
    La ceniza no caía desde su cigarro
    
    Em           D         C
    Y estaba en sus ojos desarmandote
    
    
    Em G D G - Em G D Em
    
    
    
  • e|---------------|-------------------|---------------|-------------|
    B|---------------|-------------------|---------------|-------------|
    G|-9-9-7-9-7-----|-------------------|-9-9-7-9-7-----|-------------|
    D|-----------9-9-|-5-7-7-5---5-------|-----------9-9-|-5-7-7-5-----|
    A|---------------|---------7---7-5---|---------------|---------7-7-|
    E|---------------|-----------------7-|---------------|-------------|
    
    Em             G         C           D
    Fue unos meses a Caseros y su strato roja,
    se hizo el torbellino que hoy suena en la radio.
    La ceniza no caía desde su cigarro 
         Em          D    C
    y estaba en sus ojos desarmándote,
    ESTRIBILLO + RIFF [2v]
    
    Alquiló una rana rubia, tibia y haragana,
    se moría de ganas de matarla,
    Una linda damita de concordia,
    el mas bello fuselaje que jamas lustró.
    ESTRIBILLO + RIFF [2v]
    
  • e|---------------|-------------------|---------------|-------------|--|
    B|---------------|-------------------|---------------|-------------|--|
    G|-9-9-7-9-7-----|-------------------|-9-9-7-9-7-----|-------------|--|
    D|-----------9-9-|-5-7-7-5---5-------|-----------9-9-|-5-7-7-5-----|x2|
    A|---------------|---------7---7-5---|---------------|---------7-7-|--|
    E|---------------|-----------------7-|---------------|-------------|--|
    
    Eduardo "Skay" Beilinson:
    Guitarra 2 (Riff):
    
    E|-7-7-5-7-5-3-3-|-------------------|-7-7-5-7-5-3-3-|-------------|--|
    B|---------------|-5-3-3-----3-------|---------------|-5-3-3-------|--|
    G|---------------|-------4-2---4-2---|---------------|-------4-----|--|
    D|---------------|-----------------5-|---------------|---------2-4-|x2|
    A|---------------|-------------------|---------------|-------------|--|
    E|---------------|-------------------|---------------|-------------|--|
    
    Daniel "Semilla" Bucciarelli:
    Bajo:
    g|---------------|-------------------|---------------|-------------|--|
    
  • e|------------------------------------------------------------------
    B|------------------------------------------------------------------
    G|--9-9-7h9p7------------------------9-9-7h9p7----------------------
    D|-----------9-9~--5-7-7p5---5-----------------9-9~~--5-7-7p5-------
    A|-------------------------7---7-5----------------------------7-7~~-
    E|---------------------------------7--------------------------------
    
    Viola 2
    e|--7-7-5h7p5---------------------------7-7-5h7p5----------------------
    B|------------7-7~~--3-5-5p3---3------------------7-7~~--3-5-5p3-------
    G|---------------------------4---4-2-----------------------------4-4~~-
    D|-----------------------------------4---------------------------------
    A|---------------------------------------------------------------------
    E|---------------------------------------------------------------------
    
    
    Verso
      Em           G         C            D
    Fue unos meses a Caseros y su strato roja,
    Em                       G        C               D
    
  • esta es el tab perfecto del tema
    sin errores ya que los tab anteriores contenian errores sobretodo
    en el solo
    
    intro
    |----------------|----------------|----------------|----------------|
    |----------------|----------------|----------------|----------------|
    |7---7-----------|5---5-----------|7---7-----------|--5---(7)-------|
    |--------3-3-3---|--------3-3-3---|--------3-3-3---|----5-----------|
    
    |----------------|----------------|----------------|----------------|
    |----------------|----------------|----------------|----------------|
    |7---7-----------|5---5-----------|7---7-----------|-5---(7)--------|
    |--------3-3-3---|--------3-3-3---|--------3-3-3---|---5------------|
    
    Verso
    |----------------|----------------|----------------|----------------|
    |----------------|----------------|----------------|----------------|
    |-7-7------------|3-3---5-5-5-----|-7-7/--10-10-10-|-3-3---5-5-5----|
    |-----3-3-3------|----------------|----------------|----------------|
    
    |----------------|----------------
  • esta es el tab perfecto del tema
    sin errores ya que los tab anteriores contenian errores sobretodo 
    en el solo
    
    intro
    |----------------|----------------|----------------|----------------|
    |----------------|----------------|----------------|----------------|
    |7---7-----------|5---5-----------|7---7-----------|5-------7-------|
    |--------3-3-3---|--------3-3-3---|--------3-3-3---|----7-------0---|
    
    |----------------|----------------|----------------|----------------|
    |----------------|----------------|----------------|----------------|
    |7---7-----------|5---5-----------|7---7-----------|5-------7-------|
    |--------3-3-3---|--------3-3-3---|--------3-3-3---|----7-----------|
    
    Verso
    |----------------|----------------|----------------|----------------|
    |----------------|----------------|--------5-5-5---|----------------|
    |----------------|3---3---5-5-5---|7---7-----------|3---3---5-5-5---|
    |0---0---3-3-3---|----------------|----------------|----------------|
    
    |-----------
  • C: crash
    S: splash
    H: hi-hat
    R: redoblante
    T1: tom 1
    T2: tom 2
    Ch: chancha
    B: bombo
    X:corchea x:semicorchea
    0:corchea o:semicorchea
    
    Intro:
    inicia junto con la guitarra
    
                      punteo
    C |-x-----------------------X-------|-------------------------X-------|
    S |---------------------------------|---------------------------------|
    H |---x-x-x-----x-x-x-x-x-------x-x-|-x-x-x-x-----x-x-x-x-x-------x-x-|
    R |---------o-o-------------0-------|---------o-o-------------0-------|
    T1|---------------------------------|---------------------------------|
    T2|---------------------------------|---------------------------------|
    Ch|---------------------------------|---------------------------------|
    B |-0---0-----------0---0-----------|-0---0-----------0---0-----------|
    
                Fue unos meses a Caseros y su Strato roja
    
    C |---------------------------------|---------------------------------|
    S |---------------------------------|---------------------------------|
    H |--X---X---X---X---X---X---
  • +
    ¡Colabora con nosotros!
    Envíanos tu versión de esta canción
  • Tutorial
    HD
    Como tocar El pibe de los astilleros de Los redonditos de ricota SAXO Y PUNTEOS
    11:01
  • Tutorial
    HD
    Como tocar El pibe de los astilleros de Los redonditos de ricota VERSOS Y ESTRIBILLO
    6:38
  • Tutorial
    HD
    Como tocar El pibe de los astilleros de Los redonditos de ricota INTRO Y RIFF
    6:38

Letra de El pibe de los astilleros
Fue unos meses a caseros y su strato roja
Se hizo el torbellino que hoy suena en la radio
La ceniza no caía desde su cigarro
Y estaba en sus ojos desarmandote
Alquiló una rana rubia, tibia y haragana
Se moría de ganas de matarla
Una linda damita de Concordia
El más bello fuselaje que jamás lustro
Le hizo un par de promesas imprudentes
Y así fue que de ella se aburrió
Las minitas aman los payasos
Y la pasta del campeón
El pibe de los astilleros nunca se rendía
Tuvo un palacete por un par de días
Rapiñaba montado a los containers
El maldito amor que tanto miedo da
Fue por una lluvia que realmente moje
Que pusiera fin a su aventura
Un final feliz para pimpollos
Allí estaba el fin acechándolo
Ciertos reyes no viajan en camellos
Ellos andan al tranco del amor
Esos tipos soplan con el viento
Al rebaño y su temor
Dejar sonar el riff




[El pibe de los astilleros chords][El pibe de los astilleros cifra]
© LaCuerda.net · aviso legal · privacidad · es · en · pt · contacto