Acordes de Guitarra » P »Patricio Rey y sus Redonditos de Ricota » Masacre en el Puticlub (Tab)

Masacre en el Puticlub
Patricio Rey y sus Redonditos de Ricota

Letras, Acordes y Tabs para Guitarra, Bajo y Ukulele

  • Intro:
               |x4|
    |------|----------|--------|
    |------|----------|---4/---|
    |--7/--|----------|--------|
    |------|-2--2--2--|--------|
    
    verso:
    |----------------------------|-----------------------|
    |----------------------------|-----------------------|
    |----------------------------|-----------------------|
    |--2-2-0-2-2--0-2-2-0-2-1-2--|-2-2-0-2-2--0-2-2-4-2--|
    
    Estribillo 1:
    |----------------------|
    |----------------------|  |x2|
    |---4--4-4--4-4-6-5-4--|
    |--4----4----4---------|
    
    Intermedio:
    |-----------------------------------------|
    |-----------------------------------------|  |x2|
    |-----------------------------------------|
    |--7-7-7-7-7-7-7-7-7---9-9-9-9-9-9-9-9-9--|
    
    Estribillo 2:
    |----------------------|---------------------------|
    |----------------------|---------------------------|
    |---7--7-7--7-7-9-8-7--|-----7--7-7---7-9-9-9-9-9--|
    |--7----7----7---------|--2/7----7---7-------------|
    
    Junto a la guitarra:
    |--------------|----------|
    |--------------|----------|
    |--9~--8~--7
  •       E       D#       D
    e--6-6-6-6--5-5-5-5--4-4-4-4------
    b--5-5-5-5--4-4-4-4--3-3-3-3------
    g--6-6-6-6--5-5-5-5--4-4-4-4------
    d--5-5-5-5--4-4-4-4--3-3-3-3------
    a---------------------------------
    E---------------------------------
    
                          riff
    e----------------------------------------------6-6---
    b----------------------------------------------5-5---
    g--2-----2-----2-------------2-----2-----2-----6-6---
    d----2h4---(2)---2h4-----------2h4---(2)---2h4-------
    a---------------------3333---------------------------
    E----------------------------------------------------
    
    -----------------------------------------------(7)--
    -----------------------------------------------(6)--
    --2-----2-----2-------------2-----2-----2------(7)--
    ----2h4---(2)---2h4-----------2h4---(2)---2h4--(6)--
    
  • FA#7                         FA7
    Por una pipa del 9 arrancó
    FA#7                         FA7
    la gran masacre del puticlub
    FA#7                             FA7
    con "pastilla" en tren gladiador
    FA#7                              FA7
    puso un huevo y la cosa expolotó
    MI                         RE#
    Rock fuerte en el Puticlub
    MI
    cambió la suerte del Puticlub
    
    
    6-----------------------------------------------------------
    5-----------------------------------------------------------
    4-----------------------------------------------------------
    3-----------4----2-------2----4-------------6---4------4---6
    2----1--4------------4----------------3--6----------6-------
    1--2-------------------------------4------------------------
    
  • Skay sos lo mas!!!!!!!!!!!!!!!!!!!!!!
    AGUANTE LA 8
    (V)= VIBRATO
    
    -7-7-7-7--6-6-6-6--5-5-5-5-----5----12/2----------
    -6-6-6-6--5-5-5-5--4-4-4-4-----4------------------
    -7-7-7-7--6-6-6-6--5-5-5-5-----5------------------
    --------------------------------------------------
    --------------------------------------------------
    --------------------------------------------------
                                                     ___
    --------------------------------------------------  |R
    --------------------------------------------------  |E M
    ----3------------3------------3-------------------  |P U
    ------2--4----------2(V)---------2---4------------  |I C
    ----------------------------------------3-3-3--3(v) |T H
    --2-----------2------------2----------------------  |E O
                                                     ¯¯¯
    
    DESPUES HACE ASI:                               ___
    -------------------------------------------------- |
    -------------------------------------------------- |R
  • Intro
    G|----------------|x4
    D|----------------|
    A|----------------|
    E|-2----2----2----|
    
    Verso
    G|-------------------------|x4
    D|-------------------------|
    A|-------------------------|
    E|-1h2--2-1-2--1-2-3-4-3-2-|
    
    Coro
    G|----------------------------|x2
    D|----------------------------|
    A|-8h9--9-8-9--8-9-10-11-10-9-|
    E|----------------------------|
     
    Puente
    G|---------------------|x4
    D|---------------------|
    A|-222222-2h4-44444444-|
    E|---------------------|
    
    Coro
    G|----------------------------|x2
    D|----------------------------|
    A|-8h9--9-8-9--8-9-10-11-10-9-|
    E|----------------------------|
    
    Intro
    G|-----------------|
    D|-----------------|
    A|-----------------|
    E|-3---2---1---0---|
    
     |----------------|x4
     |----------------|
     |----------------|
     |-2----2----2----|
    
    Verso
    G|-------------------------|x4
    D|-------------------------|
    A|-------------------------|
    E|-1h2--2-1-2--1-2-3-4-3-2-|
    
    Coro
    G|----------------------------|x2
    D|--------------
  • +
    ¡Colabora con nosotros!
    Envíanos tu versión de esta canción






[Masacre en el Puticlub chords][Masacre en el Puticlub cifra]
© LaCuerda.net · aviso legal · privacidad · es · en · pt · contacto