Tablatura para Guitarra de Patricio Rey y sus Redonditos de Ricota: Masacre en el Puticlub
Conexión · Inscripción
Letras y Acordes
Pantalla Completa
Imprimir
Versión Texto
Añadir Favorito
Otras Versiones

Mostrar Diagramas
Desfile Automático
Manipular Acordes
Formato del Texto


Masacre en el Puticlub(TAB)

Patricio Rey y sus Redonditos de Ricota

calidad:
redo0544
AUTOR: Patricio Rey y sus Redonditos de Ricota  corregir
ALBUM: Un Baion para el Ojo Idiota
Enviado por emiliano
patricio rey y sus redonditos de ricota
masacre en el puticlub

intro:

1--6-5-4--
2--5-4-3--
3--6-5-4--
4--4-3-2--
5---------
6--------



1---------------------------------------------------------------
2---------------------------------------------------------------
3----3-----------3-----------3----------------------------------
4-------2--4---------0-2--------2--4----------------------------
5--------------------------------------4-4-4-4------------------
6--2----------2-----------2-------------------------------------



1---------------------------------------2-------------------
2---------------------------------------2-------------------
3--3----------3-----------3-------------3-------------------
4----2--4--------0--2---------2--4------4-------------------
5---------------------------------------4-------------------
6-2--------2-----------2----------------2-------------------



FA#7 FA7 Por una pipa del 9 arrancó
FA#7 FA7 la gran masacre del puticlub
FA#7 FA7 con "pastilla" en tren gladiador
FA#7 FA7 puso un huevo y la cosa expolotó
MI RE# Rock fuerte en el Puticlub
MI cambió la suerte del Puticlub 6----------------------------------------------------------- 5----------------------------------------------------------- 4----------------------------------------------------------- 3-----------4----2-------2----4-------------6---4------4---6 2----1--4------------4----------------3--6----------6------- 1--2-------------------------------4------------------------ (se vuelve a repetir)
MI RE# Rock fuerte en el Puticlub
MI cambió la suerte del Puticlub aca repite toda la intro otra vez Buena faena de tajo y talón ruedan los dientes del negro Cañón. Su mala leche no siente dolor y arroja entrañas por todo el salón Los impacientes del Puticlub perdían el tiempo y la salud el Gas Coreano de pronto arribó llegó del norte y todo acabó Rock fuerte en el Puticlub je je, que fuerte lo del Puticlub. termina con la intro bueno eesas son todas las partes del tema solo tienen q escucharlas bien en las partes q van ¡q mas quieren,
SI quieren voy A LA casa y se lo enseño a tocar tmb!!! CHANGA
Este fichero es trabajo propio de su transcriptor y representa su interpretación personal de la canción. El material contenido en esta página es
para exclusivo uso privado, por lo que se prohibe su reproducción o retransmisión, así como su uso para fines comerciales.

© LaCuerda.net · Aviso Legal · Privacidad