Tablatura para Bajo de Patricio Rey y sus Redonditos de Ricota: Masacre En El Puticlub.
Conexión · Inscripción
Letras y Acordes
Pantalla Completa
Imprimir
Versión Texto
Añadir Favorito
Otras Versiones

Mostrar Diagramas
Desfile Automático
Formato del Texto


Masacre En El Puticlub.(BAJ)

Patricio Rey y sus Redonditos de Ricota

calidad:
redo1402
AUTOR: Patricio Rey y sus Redonditos de Ricota  corregir
ALBUM: Un Baion para el Ojo Idiota
Enviado por Lautaro
Intro:
           |x4|
|------|----------|--------|
|------|----------|---4/---|
|--7/--|----------|--------|
|------|-2--2--2--|--------|

verso:
|----------------------------|-----------------------|
|----------------------------|-----------------------|
|----------------------------|-----------------------|
|--2-2-0-2-2--0-2-2-0-2-1-2--|-2-2-0-2-2--0-2-2-4-2--|

Estribillo 1:
|----------------------|
|----------------------|  |x2|
|---4--4-4--4-4-6-5-4--|
|--4----4----4---------|

Intermedio:
|-----------------------------------------|
|-----------------------------------------|  |x2|
|-----------------------------------------|
|--7-7-7-7-7-7-7-7-7---9-9-9-9-9-9-9-9-9--|

Estribillo 2:
|----------------------|---------------------------|
|----------------------|---------------------------|
|---7--7-7--7-7-9-8-7--|-----7--7-7---7-9-9-9-9-9--|
|--7----7----7---------|--2/7----7---7-------------|

Junto a la guitarra:
|--------------|----------|
|--------------|----------|
|--9~--8~--7~--|-7x-------|
|--------------|------7/--|

pupi-pr@hotmail.com.ar
Este fichero es trabajo propio de su transcriptor y representa su interpretación personal de la canción. El material contenido en esta página es
para exclusivo uso privado, por lo que se prohibe su reproducción o retransmisión, así como su uso para fines comerciales.

© LaCuerda.net · Aviso Legal · Privacidad