Acordes de Guitarra » R »la Renga » Las cosas que haces (Tab)

Las cosas que haces
la Renga

  • Letra y Acordes
    LA RENGA
    LAS COSAS QUE HACES
    
    Intro:       
           B5 C#5  
           G#5 B5  
           FA#5 G#5  
           E5 FA#5
    
    PUNTEO    
    |----------------------------|
    |----------------------------|
    |---6-4----------------------|
    |-------7-6-4-6-4---6(C#5)---|
    |-----------------7----------|
    |----------------------------|
    
    
    E5
    Ella vive en el,en el palacio de la risa y el dolor
    
  • Tablatura
    Solo:
    
    e----------9---------------9-12-9------------------
    b---------------------------------12-9-12-9--------
    g--9-11-9-----12--12-9-12--------------------9--9e-
    d--------------------------------------------------
    a--------------------------------------------------
    e--------------------------------------------------
    
    
    
    -----------9---------------12-10--------12--------------------------
    ---------------------------------12-10-----12-10--9-e9--9-e9--9-e9--
    --9--11-9----12--12-9--12-------------------------9-e9--9-e9--9-e9--
    --------------------------------------------------------------------
    --------------------------------------------------------------------
    --------------------------------------------------------------------
    
    Riff:
    ----------------------
    ----------------------
    --6-4-----------------
    ------7-6-4-6-4-------
    ----------------7--4--
    ----------------------
    
    
    
    E= estirar
    
    UN saludo pa todos los que me conocen
  • Tablatura
    solo:
    
    |-----------9-----------9-12-9--------------------
    |-------------12--9-12---------12-9-12-9----------
    |-9~~-11-9-------------------------------11-12~~--
    |-------------------------------------------------
    |-------------------------------------------------
    |-------------------------------------------------
    
    -----------9-----------12-9------9---------------|
    -------------12--9-12-------12-9----12-9---------|
    -9~~-11-9--------------------------------11-12~~-|
    -------------------------------------------------|
    -------------------------------------------------|
    -------------------------------------------------|
    
    
    bueno, espero que les haya gustado y lo hayan podido
    hacer, cualquier cosa manden a genaronm_09@hotmail,
    chau saludos a salto.
  • +
    ¡Colabora con nosotros!
    Envíanos tu versión de esta canción

Letra de Las cosas que haces
LAS COSAS QUE HACES
PUNTEO
Ella vive en el,en el palacio de la risa y el dolor
Y me hace señas porque yo la estoy mirando
Y no tengo a dónde ir
Se que me dirá que estaba sola porque nunca me encontró
Y porque ella, ha besado la muerte
Con los labios del corazón
Ese pobre corazón que se muere por vivir,
Las cosas que hace, se manda con todo a todo
Siempre le fue al riesgo fiel Y ha tratado sin razón
De poderla convencer, que no trate de pensar
Que lo acepte como es, que por eso la eligió
Quien fuera su gran mentor

Lo ha dotado con el filo
Aquel,que sangra las venas del amor
Él, el que te ha sabido desbocar,
A vos, que lo llevás con tanta fiebre en la piel
Vos, que cargas sus penas por error, error

yo ya vivo en Él, en el palacio de la risa y el dolor
Y te hago señas porque yo te estoy mirando
Y no tenés donde ir
Te voy a decir, que estaba solo porque nunca te encontré
Y porque yo también he besado la muerte
Con los labios del corazón
Ese pobre corazón que se muere por vivir,
Las cosas que hace, se manda con todo a todo
Siempre le fue al riesgo fiel
Y ha tratado sin razón
De poderme convencer, que no trate de pensar
Que lo acepte como es, que por eso me eligió
Quien fuera su gran mentor
Lo ha dotado con el filo aquel
Que sangra las venas del amor
Él, el que te ha sabido desbocar,
A vos, que lo llevás con tanta fiebre en la piel
Vos que cargas sus penas por error, error
Ese pobre corazón que se muere por vivir,
Las cosas que hace, se manda con todo a todo
Siempre le fue al riesgo fiel Y ha tratado sin razón
De poderla convencer, que no trate de pensar
Que lo acepte como es, que por eso la eligió
Quien fuera su gran mentor

Lo ha dotado con el filo
Aquél, que sangra las venas del amor
Él, el que te ha sabido desbocar,
A vos, que lo llevás con tanta fiebre en la piel
Vos, que cargas sus penas por error, error
AGUANTE LA RENGA Y EL ROCK NACIONAL!!!!!



© LaCuerda.net · aviso legal · privacidad · contacto