Tablatura para Guitarra de la Renga: Las cosas que haces
Conexión · Inscripción
Letras y Acordes
Pantalla Completa
Imprimir
Versión Texto
Añadir Favorito
Otras Versiones

Mostrar Diagramas
Desfile Automático
Manipular Acordes
Formato del Texto


Las cosas que haces(TAB)

la Renga

calidad:
reng0733
AUTOR: Gustavo Napoli
ALBUM: desconocido
Enviado por Genaro
solo:

|-----------9-----------9-12-9--------------------
|-------------12--9-12---------12-9-12-9----------
|-9~~-11-9-------------------------------11-12~~--
|-------------------------------------------------
|-------------------------------------------------
|-------------------------------------------------

-----------9-----------12-9------9---------------|
-------------12--9-12-------12-9----12-9---------|
-9~~-11-9--------------------------------11-12~~-|
-------------------------------------------------|
-------------------------------------------------|
-------------------------------------------------|


bueno, espero que les haya gustado y lo hayan podido
hacer, cualquier cosa manden a genaronm_09@hotmail,
chau saludos a salto.
Este fichero es trabajo propio de su transcriptor y representa su interpretación personal de la canción. El material contenido en esta página es
para exclusivo uso privado, por lo que se prohibe su reproducción o retransmisión, así como su uso para fines comerciales.

© LaCuerda.net · Aviso Legal · Privacidad