Tablatura de Patricio Rey y sus Redonditos de Ricota: Esa estrella era mi lujo
Beilinson-Solari
¡Bang! ¡Bang! ... Estas liquidado. [1989]
  Introducción:

  E|----0--|-1--1--|-5-3-5-3--3----------------|
  B|----1--|-1--1--|------------6-5------------|
  G|----2--|-2--2--|---------------------------|
  D|-2--2--|-3--3--|---------------------------|
  A|-0-----|-3--3--|---------------------0-3-0-|
  E|-------|-1--1--|-----------------0-3-------|                   

   LA BASE ES CON LAm-FA-MI-LAm


 Punteo:

E|-----------------------------------------------------------------
B|-1-0---------------------------------8-10--10-8---8-10-----------
G|-----2-0----------------------7-9-10------------9-------9-7----9-
D|---------3----2--------7-9-10------------------------------10----
A|-----------------------------------------------------------------
E|-------------------5---------------------------------------------


E|-----------------------------------------------------------|-----
B|-----------------------------------------------------------|-----
G|-----------------------------9-7----9-7----9-7-------------|-----
D|------7-10--7-------7-10---------10-----10-----10-9-10-9---|-----
A|-7-10----------7-10-------8------------------------------7-|-7-10
E|-----------------------------------------------------------|-----


E|-----------------7-8-10-8--7--8--7------7-8-7-----------|
B|----------8-10----------------------10--------8--5_8-10-|(_)Arras
G|------7-9-----------------------------------------------|    tre
D|-7-10---------------------------------------------------|
A|--------------------------------------------------------|
E|--------------------------------------------------------|

 Aguante el LOBO
Este fichero es trabajo propio de su transcriptor y representa su interpretación personal de la canción. El material contenido en esta página es
para exclusivo uso privado, por lo que se prohibe su reproducción o retransmisión, así como su uso para fines comerciales.
© LaCuerda.net · aviso legal · privacidad · contacto