Tab p/Bajo de Patricio Rey y sus Redonditos de Ricota: Esa estrella era mi lujo
Beilinson-Solari
¡Bang! ¡Bang! ... Estas liquidado. [1989]
PUENTE:
G|-------|-------|----------|-----------------|x3
D|-------|-------|----------|-----------------|
A|-------|-------|----------|----------------3|
E|-5-51--|-1--1--|-3--31-1--|--0--0-0---3-5---|



G|-------|-------|----------|-------|
D|-------|-------|----------|-------|
A|-------|-------|----------|-------|
E|-5-51--|-1--1--|-3--31-1--|--0----|






INTRO:
G|-----------------|------------------|
D|-----------------|------------------|
A|-----------------|------------------|
E|-1--1-1-1--1-1-1-|-0--0-0-0--0-0-0--|


G|-----------------|------------------|
D|-----------------|------------------|
A|-----------------|------------------|
E|-5--5-5-5--5-5-5-|-5--5-5-5--5-5-5--|


G|-----------------|------------------|
D|-----------------|------------------|
A|-----------------|------------------|
E|-1--1-1-1--1-1-1-|-0--0-0-0--0-0-0--|


G|-----------------|------------------|
D|-----------------|------------------|
A|-----------------|------------------|
E|-5--5-5--5-5--1--|---1-1-0---0-0-0--|




VERSO:
G|----------------|-----------------|
D|----------------|-----------------|
A|----------------|-----------------|
E|-5--5-5-5-5-5-5-|-1--1-1-1-1-1-1--|

 |----------------|-----------------|
 |----------------|-----------------|
 |----------------|-------------0-3-|
 |-0--0-0--0-0--0-|-5--5-5--0-3-----|



G|----------------|-----------------|
D|----------------|-----------------|
A|----------------|-----------------|
E|-5--5-5-5-5-5-5-|-1--1-1-1-1-1-1--|

 |----------------|---------------|
 |----------------|---------------|
 |----------------|----------3-2--|
 |-0--0-0--0-0--0-|-5--5-5--------|



PUENTE x2

VERSO

PUENTE x2


Solo de Guitarra con base INTRO


VERSO

y el ultimo verso es asi


G|----------------|-----------------|-----
D|----------------|-----------------|-----
A|----------------|-----------------|-----
E|-5--5-5-5-5-5-5-|-1--1-1-1-1-1-1--|-0---




bueno creo q es mas o menos asi


espero q les salga..hace poco q toco el bajo
pero creo q asi sale mejor q la otra






AGUANTE LOS REDONDOS




pipen
Este fichero es trabajo propio de su transcriptor y representa su interpretación personal de la canción. El material contenido en esta página es
para exclusivo uso privado, por lo que se prohibe su reproducción o retransmisión, así como su uso para fines comerciales.
© LaCuerda.net · aviso legal · privacidad · contacto