Acordes de Guitarra » H »Hombres G » Devuelveme a mi chica (Tab)

Devuelveme a mi chica
Hombres G

Letras, Acordes y Tabs para Guitarra, Bajo y Ukulele

  • Intro: SIm, FA#m, SIm FA#m
    
    SIm                        FA#m
    Estoy llorando en mi habitación
    SIm                      FA#m      FA#m FAm
    todo se nubla a mi alrededor,
    MIm                      SIm
    ella se fue con un niño pijo
    MIm                   FA#m
    en ford fiesta blanco-o y un jersey amarillo.
    
    SIm                    FA#m
    Por el parque les veo pasar
    SIm                       FA#m      FA#m FAm
    cuando se besan lo paso fatal,
    MIm                      SIm
    voy a vengarme de ese marica
    MIm                       FA#m
    voy a llenarle el cuello-o de polvos pica pica.
    
    
  • (DO#m)                     SOL#m
    Estoy llorando en mi habitación
    (DO#m)                   SOL#m (SOL#m SOLm FA#m)
    Todo se nubla a mi alrededor
    (FA#m)                  DO#m   (DO#m SOLm FA#m)
    Ella se fue con un niño pijo
    (FA#m)               SOL#m
    En un ford fiesta blanco
    
    Y en un jersey amarillo
    
    
    (DO#m)                 SOL#m
    Por el parque los veo pasar
    (DO#m)                   SOL#m (SOL#m SOLm FA#m)
    no se besan por que es fatal
    (FA#m)                  DO#m   (DO#m SOLm FA#m)
    Voy a vengarme de ese marica
    (FA#m)               SOL#m
    Voy a llenarle el cuello
    
  • Intro: Am Dm Dm Am Dm
    
       Dm                            Am
       Estoy llorando en mi habitación
     Dm                          Am
       todo se nubla a mi alrededor
    Am-G#m-Gm                   Dm
       Ella se fue con un niño pijo
    Am-G#m-Gm
       tiene un Ford Fiesta blanco
    Am
       y un jersey amarillo
    
     Dm                         Am
       Por el parque los veo pasar
     Dm                           Am
       cuando se besan lo paso fatal
    Am-G#m-Gm                   Dm
       Voy a vengarme de ese marica
    Gm
    
  •  Dm Am Am/2 G#m Gm A# F G C
    [1--0--5----4---3--1--1-3-3-]
    [3--1--5----4---3--3--1-3-5-]
    [2--2--5----4---3--3--2-4-5-]
    [0--2--7----6---5--3--3-5-5-]
    [0--0--7----6---5--1--3-5-3-]
    [X--0--5----4---3--1--1-3-3-]
    
    INTRO:
    Dm Am
    Dm Am
    
    VERSO:
    Dm                           Am
    ESTOY LLORANDO EN MI HABITACIÓN
    Dm                       Am   Am/2 G#m
    TODO SE NUBLA A MI ALREDEDOR
    Gm                        Dm
    ELLA SE FUE CON UN NIÑO PIJO
    Gm
    
  • e----10--------------------------------------10--10--13--10--
    B----10----10-----------8--------8-------10------------------
    G-------------10---10-------10-----10------------------------
    D------------------------------------------------------------
    A------------------------------------------------------------
    E------------------------------------------------------------
    
    e--------------------------------------------------------
    B---10------------------------------10--13--10--10--9---8
    G--------10----12----10----12---10-----------------------
    D--------------------------------------------------------
    A--------------------------------------------------------
    E--------------------------------------------------------
    
    e---------------------------10------------------------------
    B------8------------------------10---------------8----------
    G----------7------------10----------10----7---------7-------
    D---8---------8----5--------------------------8--------8---5
    A-----------------------------------------------------------
    E-----------------------------------------------------------
    
  • e--10p5p1--1-3-1-3-1-3/5---9/10-13-10p1-1-3-1-3-1-3/5-7-5
    B--------------------------------------------------------
    G--------------------------------------------------------
    D--------------------------------------------------------
    A--------------------------------------------------------
    E--------------------------------------------------------
    
    e--7-6-5-----5-----------10----------5----
    B--7-6-5---5--5-----1O------10-----5---5--
    G--7-6-5--5-5--5--10---10-----10--5-5---5-
    D-----------------------------------------
    A-----------------------------------------
    E-----------------------------------------
    
    e---------5/7-7/9-9/11-----
    B-----3/5------------------
    G-3/6----------------------
    D--------------------------
    A--------------------------
    E--------------------------
    
  • intro:REm LAm REm LAm SOL#m SOLm REm
    
    REm                           LAm
       estoy llorando en mi habitacion
    REm                         LAm SOL#m SOLm
       todo se nubla a mi alrededor
                               REm  SOLm
       elaa se fue con un niño pijo
                                LAm
       tenia un ford fiesta blanco
                            REm
       y un jersery amarillo
                               LAm REm
       por el parque les veo pasar
                                 LAm SOL#m SOLm
       cuando se besan la paso fatal
                                 REm SOLm
       voy a vengarme de ese marica
                             LAm
       voy a llenarle el cuello
    
  • Hola, otra vez yo..jeje
    weno ahr solamente hize más "simple" el tab de esta canción
    y espero que les sirva..revivamos a Hombres G !!
    
    INTRO:
    G|-------------------|---------------|-------------------|---------------|
    D|-------------------|---------------|-------------------|---------------|
    A|-------5-----------|---------------|-------5-----------|---------------|
    E|-------------------|------5--------|-------------------|------5--------|
    
    VERSOS:
       Estoy llorando en mi habitacion   /  Todo se nubla a mi alrededor
    G|-------------------|---------------|---------------|-----------------|
    D|-------------------|---------------|---------------|-----------------|
    A|--------5----------|---------------|------5--------|-----------------|
    E|-------------------|-------5-------|---------------|--------5--------|
    
      Ella se fue con un niño pijo   / En un ford fiesta blanco y un ...
    G|-----------------|-------------|---------------|-----------------|
    D|-----------------|-------------|-------------
  • +
    ¡Colabora con nosotros!
    Envíanos tu versión de esta canción
  • Tutorial
    HD
    Como tocar Devuelveme a mi Chica (Sufre Mamon)
    en Guitarra (HD)
    Tutorial Acordes
    5:26
  • Tutorial
    HD
    Devuélveme a mi chica - Hombres G: SOLO GUITARRA TAB #6
    0:27
  • Tutorial
    HD
    Explicado - Como tocar "Devuélveme a mi chica" de Hombres G/Enanitos verdes en el bajo tutoria
    14:09

Letra de Devuelveme a mi chica
Estoy llorando en mi habitación
todo se nubla a mi alrededor,
ella se fue con un niño pijo
en ford fiesta blanco-o y un jersey amarillo.
Por el parque les veo pasar
cuando se besan lo paso fatal,
voy a vengarme de ese marica
voy a llenarle el cuello-o de polvos pica pica.
Sufre mamón
devuélveme a mi chica,
o te retorcerás
entre polvos pica pica.
Sufre mamón
devuélveme a mi chica,
o te retorcerás
entre polvos pica pica.
Musica: sim fa#m, sim fa#m, fa#m fam mim, sim,
Le he quemado su jersey
se ha comprado cinco o seis,
voy a destrozarle el coche
lo tengo preparado-o hoy esta noche.
No te reirás nunca mas de mi
lo siento nene vas a morir,
tu me quitaste lo que mas quería
y volverá conmigo-o, volverá algún día.
Sufre mamón
devuélveme a mi chica,
o te retorcerás
entre polvos pica pica.
Sufre mamón
devuélveme a mi chica,
o te retorcerás
entre polvos pica pica.
Sufre mamón
devuélveme a mi chica,
o te retorcerás
entre polvos pica pica.
Sufre mamón
devuélveme a mi chica,
o te retorcerás
entre polvos pica pica.
"Es la canción que mas puertas no ha abierto en
todos piases donde hemos tenido la suerte de
trabajar, incluido España, pos supuesto ha sido
gracias a "SUFRE MAMÓN" como la llama todo el
mundo. Cambien nos hizo hacer cine, y siempre
siempre la tocamos, siempre". David Summers (1985)




[Devuelveme a mi chica chords][Devuelveme a mi chica cifra]
© LaCuerda.net · aviso legal · privacidad · es · en · pt · contacto