Acordes de Guitarra » H »Hombres G » Venezia (Tab)

Venezia
Hombres G

Letras, Acordes y Tabs para Guitarra, Bajo y Ukulele

  •                   DO                             FA
                      Yo soy il capone de la m fia
                      SOL                             DO
                      yo soy il fillo de la mia mama
                      DO                         FA
                      Soi un estronzo di merda
                      SOL 
                      e un figlio di Froyu in
                      LAm-MIm     
                      Venezia (quiero spaguetti)
                      LAm-MIm      
                      Venezia (y mortadella)
                      LAm-MIm
                      Venezia (quiero tirarme)
                      LAm-MIm
                      Venezia (a la Donatella)
                      FA                      SOL
                      Ya estoy preparado, ya tengo las maletas
                      DO               LAm
                      Vamos juntos hasta Italia
    
  • F  G  C                         F
           IO SONO AL CAPONE DE LA MAFIA
          G                             C     
           IO SONO EL FIGLIO DE LA MIA MAMA
    F  G  C                     F    
           TU SE UN STRANGO DI MERDA
          G                          Am Em
           E UN FIGLIO DI TROYA IN VENECIA
             Am Em     Am Em     Am Em       
           VENECIA,  VENECIA,  VENECIA   
           Em  Ebm   F 
           CHA CHA CHA  
          
           LO TENGO PREPARADO
          G
           YA TENGO LAS MALETAS 
          
          C             Am
           VAMOS JUNTOS HASTA ITALIA      
          F                       G
    
  • hola aki les traigo los solos de esta cancion espero que les guste
    
    
    SOLOS:
    
    1.
    |--------------------------------------------------------|
    |-7p6-6-6---------6h7p6----------------------------------|
    |---------6-6---6-------6---6-6\-------------------------|
    |-------------8-----------8--------3-4-3-4-3-4/6-4-3-3---|
    |------------------------------------------------------4-|
    |--------------------------------------------------------|
    
    |---------------------------------9----------------------|
    |-7-7-7-6-7-6--------9-6-6----------7-6-7-7/9--9-9-9-----|
    |-------------6----6-------6----6------------------------|
    |--------------------------------------------------------|
    |--------------------------------------------------------|
    |--------------------------------------------------------|
    
    2.Este solo se escucha desde la segunda repeticion del coro:
    |-----------------------------------------------------------------|
    |----------------------------------------------------------
  • |-------4-|-------4-|---------|---------|
    |-2-4-2---|-2-4-2---|-2-4-2-4-|-6-4-6-4-|
    |---------|---------|---------|---------|
    |---------|---------|---------|---------|
    |---------|---------|---------|---------|
    |---------|---------|---------|---------|
    
    
    VERSOS:
    Esta es la guitarra 2 y se toca con palm muted todo.
    la guitarra 1 toca los acordes marcados en ritmo como 
    de regue:
    
      C#                  F#             
    |-----------------------------------------|
    |-----------------------------------------|
    |-6666-6666-6666-6666---------------------|
    |-6666-6666-6666-6666-4444-4444-4444-4455-|
    |-4444-4444-4444-4444-4444-4444-4444-4455-|
    |---------------------2222-2222-2222-2233-|
    
  • hola de nuevo he aqui el bajo de esta cancion que esta
    bacan , y bueno este bajo me lo enseño mi amigo CARLOS, pero como
    el es el guitarrista ahora el que manda en el bajo soy yo
    y quisiera enseñarlos a todos a traves de atame que esta bien
    bacan, bueno mucho palabreo y ahi les va:
    
    
    intro:
        C#         A-#       F#             G#
    E-------------66-6-----6---22-2----2--44-4---4
    A--44-4---4---------44-----------11-------33---
    D------33-------------------------------------
    ya esto se hace en el intro dos veces ahora:
    
    ESTROFA:
         C#                       F#
    E-----------------------------22-2----2---22----2
    A-----44-4------4--44---4----------11---------4---
    D------------33-------6--------------------------
        G#                   C#
    E--44-4----4--44---4---------------2-4-
    A-------33-------6------44-4---4-------
    D---------------------------33---------
    esto sigue asi hasta cuando va entrar una parte cuando
     dice venezia:
    se hace esto:
    sigues con las notas C#,
  • Hola gente, antes que nada dejenme decirles que quise hacer esta 
    transcripcion para todos, aunque no toquen piano, por eso no manejo notas.
    Ademas dejenme decirles que no tengo un piano a la mano asi que puede haber
    pequeños errores en cuanto a la octava a la que pertenece los segmento que ven.
    
    ok, primero una explicacion:
                   /---------------|Este numero indica la octava (la cuarta es
     _____________4_____________    la central del piano)
    |  | | | |  |  | | | | | |  |   
    |  | | | |  |  | | | | | |  |
    |  |_| |_|  |  |_| |_| |_|  |
    |   |   |   |   |   |   |   |
    |_*2|___|_*2|___|_*2|___|___|
    |                  \--------|--|Los asteriscos son para formar acordes
    |_____________6_____________|   (si les sigue un numero quiere decir que 
    |  | | | |  |  | | | | | |  |\   se toca el acorde ese numero de veces)
    |  | | | |  |  | | | | | |  | \|Si los tecladitos estan unidos, quiere   
    |  |_| |_|  |  |_| |_| |_|  |   decir que se toca esto junto,ya que son 
    | 3 |   
  • Hola, qui esta la segunda parte, esta es mas facil de entender:
    Al terminar la intro de piano, la cancion cambia de tono, pasa de
    C a C#:
    Voy a poner los acordes primero y luego la letra de la cancion para que
    sepan donde tocarlos, ok.
    
    Acordes:
     ___________________________
    |  | | | |  |  | | | | | |  |
    |  | | | |  |  | | | | | |  |
    |  |*| |_|  |  |_| |*| |_|  | C#
    |   |   |   |   |   |   |   |
    |___|___|___|_*_|___|___|___|
     ___________________________
    |  | | | | | |  |  | | | |  |
    |  | | | | | |  |  | | | |  |
    |  |_| |_| |*|  |  |*| |_|  | Bbm
    |   |   |   |   |   |   |   |
    |_*_|___|___|___|___|___|___|
     ___________________________
    |  | | | | | |  |  | | | |  |
    |  | | | | | |  |  | | | |  |
    |  |*| |_| |*|  |  |*| |_|  | F#
    |   |   |   |   |   |   |   |
    |___|___|___|___|___|___|___|
     ___________________________
    |  | | | | | |  |  | | | |  |
    |  | | | | | |  |  | | | |  |
    |  |_| |*| |_|  |  |_| |*|  | G#
    |   |   |   |   |   |   |   |
    |___|___|___|___|_*_|___|
  • +
    ¡Colabora con nosotros!
    Envíanos tu versión de esta canción

Letra de Venezia
Yo soy il capone de la m fia
yo soy il fillo de la mia mama
Soi un estronzo di merda
e un figlio di Froyu in
Venezia (quiero spaguetti)
Venezia (y mortadella)
Venezia (quiero tirarme)
Venezia (a la Donatella)
Ya estoy preparado, ya tengo las maletas
Vamos juntos hasta Italia
quiero comprarme un jersey a rayas
pasaremos de la mafia
nos ba¤aremos en la playa (BIS)
Estabamos per torci al n£mero mile
cuando entr¢ la guardia civile
yo soy un capo de la m fia
Se montispaco pes fi por la
somo como la Faccia (quiero spaguetti)
la Faccia (y mortadella)
la Faccia (quiero tirarme)
Ya estoy preparado, ya tengo las maletas
(ESTRIBILLO)




[Venezia chords][Venezia cifra]
© LaCuerda.net · aviso legal · privacidad · es · en · pt · contacto