Acordes de Guitarra » H »Hombres G » Lo noto (Tab)

Lo noto
Hombres G

Letras, Acordes y Tabs para Guitarra, Bajo y Ukulele

  •    F
    Lo noto, 
       Am                   Dm
    Sé que nos pasa algo aunque selles tus labios,
       Bb                    C      
    El mal rollito entre los dos,
       F
    Lo noto. 
        Am                     Dm
    Tu siempre estas cansada y nunca dices nada,
         Bb                    C                 Bb
    Pero sé que no estoy loco... y lo noto.
          C                      Bb          C
    Me está matando poco a poco... y lo noto.
    
       F
    Lo noto
       Am                    Dm
    Me lo dicen tus ojos y esos besos tan flojos,
        Bb          C
    
  • F           C
    Lo noto, se que nos pasa algo
        Dm
    aunque selles tus labios
       Bb            C
    el mal rollito entre los dos,
     F
    lo noto...
         C                     Dm
    tú siempre estás cansada y nunca dices nada,
       Bb                C            Bb
    pero sé que no estoy loco y lo noto...
         C                 Bb        C
    me está matando poco a poco y lo noto.
    
    
       F         C                 Dm
    Lo noto, me lo dicen tus ojos, esos besos tan flojos
     Bb           C              F
    Que dejan un sabor amargo y roto,
    
  •  Dmmaj7    G*
    e--1--------X--|
    B--2--------3--|
    G--2--------0--|
    D--0--------0--|
    A--X--------2--|
    E--X--------X--|
    ----------------------------------------------
    
    
    intro: F - C - Bb x2
    
       F
    Lo noto,
       C                   Dm
    Sé que nos pasa algo aunque selles tus labios,
       Bb             C
    El mal rollito entre los dos,
       F
    Lo noto.
    
  •    \   F           C      A#5
    1|  |----------------------------- 
    2|) |----------10--8~-10----------
    3|  |--10~----------------10~-----
    4|  |------10-----------------10~-
    5|) |-----------------------------
    6|  |-----------------------------
       /                              
      /
    
      \
       \   F           C      A#5      
    1|  |---------------------------------
    2|) |----------10--8~-10-----------12-
    3|  |--10~----------------10~----10---
    4|  |------10-----------------10------
    5|) |---------------------------------
    6|  |---------------------------------
       /
      /
    
  • B|--------10-8b.---10--------|   ´
    G|10b.---8------------10b.--9|
    
      FA         SOL      FA
    B|--------10-8b.---10-----|   ´
    G|10b.---8------------10b.|
    
        FA      Am                  Dm
    Lo noto, se que nos pasa algo, Aunque
    
    
    Lo que sigue va después del primer coro:
    
    B|----10-8b.---10-----|   ´
    G|10b.------------10b.|
    
    B|----10-8b.---10-------10-8-10---|   ´
    G|10b.------------10b.----------10|
    
       FA    Am
    
  • e|---1--------5---3---5---1------|---1--------5---3---5---1---|
    B|---1----1------------------(1)-|---1----1-------------------|
    G|---2---------------------------|---2------------------------|(BAJO con slide y entra en F)
    D|---3---------------------------|---3------------------------|
    A|---3---------------------------|---3------------------------|
    E|---1---------------------------|---1------------------------|
    
    
        F5   E5         
    Lo noto, sé que nos pasa algo 
    D
    aunque selles tus labios
    A#5            C5                 F5
    el mal rollito entre los dos lo noto.
    E5
    Tu siempre estas cansada 
    D5
    y nunca dices nada
    A#5                C5               F5
    pero sé que no estoy loco... y lo noto.
    
  • -----------------------------------------------------------------
    -------------------------5-5-7-7---------------------------------
    -8-8-8-8-8-8-8-8-7-7-7-7---------8-8-8-8-8-8-8-8-8-8-8-8-8-8-8-8-
    -----------------------------------------------------------------
    
    
     Lo noto         se que nos pasa algo   aunque selles tus labios
     Lo noto         me lo dicen tus ojos   y esos besos tan flojos      
    -----------------------------------------------------------------
    -----------------------------------------------------------------
    -8-8-8-8-8-8-8-8-7--7--7--7--7--7--7--7-5--5--5--5--5--5--5--5---
    -----------------------------------------------------------------
    
    
     el mal rollito entre los dos lo noto        tu siempre estas ca.
     que dejan un sabor amargo y  roto            aunque tu me lo nie
    -----------------------------------------------------------------
    -----------------------------------------------------------------
    -1--1--1--1-----3--3--3--3----8-8-8-8-8-8-8-8-7-7-7
  • +
    ¡Colabora con nosotros!
    Envíanos tu versión de esta canción
  • Tutorial
    HD
    Lo noto - Hombres G (guitarra acustica)
    como tocar
    1:38
  • Tutorial
    HD
    Como Tocar LO NOTO de Hombres G y Miguel Bosé en guitarra acústica - Tutorial HD
    8:45

Letra de Lo noto
Lo noto,
Sé que nos pasa algo aunque selles tus labios,
El mal rollito entre los dos,
Lo noto.
Tu siempre estas cansada y nunca dices nada,
Pero sé que no estoy loco... y lo noto.
Me está matando poco a poco... y lo noto.
Lo noto
Me lo dicen tus ojos y esos besos tan flojos,
Que dejan un sabor amargo
y roto.
Aunque tu me lo niegues no queda mas que nieve
Donde hubo calor y yo lo noto.
Puedo ser un cabrón pero no un tonto y lo noto.
Noto que mi corazón no sé, no va,
Que las miradas se caen y que muere el mar,
Tu y yo tenemos que hablar
Porque ya se va acabando el aire entre nosotros...
Y lo noto...
Lo noto
noto que me esquivas que evitas mis caricias
Que pones mala cara si te toco,
Y yo que estoy perdido no puedo hablar contigo,
Y cada día me siento mas solo...
Me voy hundiendo poco a poco.
Todo se va la mierda entre nosotros... y lo noto...
Noto que mi corazón no sé, no va,
Que las miradas se caen y que muere el mar,
Tu y yo tenemos que hablar
Porque ya se va acabando el aire entre nosotros...
Y lo noto...




[Lo noto chords][Lo noto cifra]
© LaCuerda.net · aviso legal · privacidad · es · en · pt · contacto