Acordes de Guitarra » H »Hombres G » el Ataque de las Chicas Cocodrilo (Tab)

el Ataque de las Chicas Cocodrilo
Hombres G

Letras, Notas, Punteos, Tablaturas y Acordes de Guitarra (Tabs & Chords)

  • Letra y Acordes
    A             E                   F#m   D
     Nunca hemos sido los guapos del barrio.
    A               E                F#m  D
     Siempre hemos sido una cosa normal.
    Bm                       A
     Ni mucho ni poco ni para comerte el coco.
    Bm                               D
     Pues yo ya te digo una cosa normal.
    
    
    A           E             F#m  D      
     Y ahora vamos a la discoteca.
    A                 E                   F#m    D  
     Si no tienes cuidado te muerden las piernas.
    Bm             A 
     Bebes un poco, te haces el loco,
    Bm                      D
     Ves a una chica disimular.
    
    
    
  • Tablatura
    e----7-------9----7----5
    B----7-------10---7----5
    G----7------------------ BEBES UN POCO(Y LUEGO ESTO)
    D----9------------------
    A----9------------------
    E----7------------------
    
    
    e---5------7--5--4-----
    B---5------7--5--5-----
    G---6------------------ TE ASES EL LOCO( Y ESTO)
    D---7------------------
    A---7------------------ ES NADA MAS PARA KE SE UBIKEN
    E---5------------------ EN DONDE VA EL ARREGLO OK?
    
    ORA LO BUENO EL SOLO:)
    
    e------------------------------------------------------
    B---9/10-9---------------------------------------------
    G----------6-4/6-------------2/1-1/2-2-----------------
    
  • Tablatura
    SOLO # 1
    
    e|------------------------|
    b|-9-10-9-----------------|
    g|--------7-5-7-----------|
    D|--------------5-5-7-8-7-|
    A|------------------------|
    E|------------------------|
    
    SOLO # 2
                                           (3X VECES)
    e|---------------------------6---10-|10-10-10-8-10-|
    b|-------------------------8---8----|--------------|
    g|-7-7-7-7-5-5-7-7-7-7-5-5----------|--------------|
    D|----------------------------------|--------------|
    A|----------------------------------|--------------|
    E|----------------------------------|--------------|
    
    Continua....
          (3X VECES)                     (3X VECES)
    e|-------------------|-10-13-10-|17-17-17-17-15-15-|
    b|-15-15-15-15-13-13-|----------|------------------|
    g|-------------------|----------|------------------|
    D|-------------------|----------|------------------|
    A|-------------------|----------|------------------|
    E|-------------------|----------|------------------|
    
    Para terminar el SOLO # 2......
    
    e
  • Tablatura
    |------------------------------------
    |--9^10^9----------------------------
    |---------7-7--5-7-------------------
    |------------------5-5---5--7^5^7----
    |----------------------7-------------
    |------------------------------------
    
    |------------------------------------
    |--9^10^9----------------------------
    |---------7-7--5-7---------7---------
    |------------------5-5---5-----------
    |----------------------7-------------
    |------------------------------------
    
    |------------------------------------
    |--9^10^9----------------------------
    |---------7-7--5-7-------------------
    |------------------5-5---5--7^5^7----
    |----------------------7-------------
    |------------------------------------
    
  • Tablatura
    uns saludo A MI novia ERIKA IZUCAR  a quien amo y quiero mucho,
    cualquier duda esta el email del maestro, un saludo desde mexico, 
    y coolaborren cada dia mas, bueno empecemos, esto es las chicas 
    cocodrilooo, metanle ritmo y esta todo muy bien.....
    Transcripcion por Marcelo E. Manfredi.
    Manfredi_M@bigfoot.com
    Buenos Aires, Arg.
    
    EMPEZAMOS
    [solo]
    
    
    |---------------------------------------------------------
    |----9-h10p-9---------------------------------------------
    |--------------6----4h-6---------------2\1--2-2~/---------
    |-------------------------4-4-----2h-4--------------------
    |---------------------------------------------------------
    |---------------------------------------------------------
    
    
    
  • Tab p/Bajo
    k onda ps bueno esta cancion esta dedicada a todas las chicas
    cocodrilo de hgo hahahaha boeno ahi les dejo la
    tab ojala i la entiendan me costo unos 5 min en sakarla....
    ¡¡ agarren el ritmo¡¡¡
    
    nota: no anote bn los tiempos pro las pisadas son 1000% correctas
    
    
    
    afinacion standar
    1a-sol
    2d2-re
    3ra-la
    4ta-mi
    
    Intro--
    1 - - - - - - - - - - - - - - - - - - - - - - - - - - - - - -
    2- - - - - - - - - - 44 -0- - - - - - - - - - - - - - - - - -
    3- - - - - - - - - - - - - -55555555- - - - - - - - - - - - -
    4.-55-0-00-0 - - - - - - - - - - - - - - - - - - - - - - - -
    
    
    cambia hasta que va..(ni mucho ni poco……..)
    
    1 - - - - - - - - - - - - - - - - - - - - - - - - - - - - - -
    2- - - - - - - - - - - - - - - - - - - - - - - - - - - - - -
    3- -222222 - - - - - - - - - - - - - - - - - - - - - - - - -
    4.- - - - - - - 000- -555555 - - - - - - - - - - - - - - - -
    
    despoes en (ni para comerse el koko)
    
    
    1 - - - - - - - - - - - - - - - - - - - - - - - - - - - - - -
    2- - - - - - - - - - - - - - - - -
  • +
    ¡Colabora con nosotros!
    Envíanos tu versión de esta canción
  • Tutorial
    El ataque de las chicas cocodrilo - Hombres G - Como tocar bien en guitarra
    3:44

Letra de el Ataque de las Chicas Cocodrilo
Nunca hemos sido los guapos del barrio.
Siempre hemos sido una cosa normal.
Ni mucho ni poco ni para comerte el coco.
Pues yo ya te digo una cosa normal.
Y ahora vamos a la discoteca.
Si no tienes cuidado te muerden las piernas.
Bebes un poco, te haces el loco,
Ves a una chica disimular.
Has sido tu, que crees que no te he visto
has sido tu, cicha cocodrilo.
Has sido tu, la que me dio el mordisco
has sido tu, has sido tu, has sido tu.
Yo no hago mas que mirarme al espejo
yo la verdad no me encuentro tan guapo.
Me encuentro simpatico, un poco maniatico
quiza de este lado un poquito mejor.
Pero ya te digo no se lo que pasa
que todos los dias me escriben mil cartas.
Llaman a mi casa, y luego no hablan
Has sido tu, que crees que no te he visto...



© LaCuerda.net · Aviso Legal · Privacidad