Acordes de Guitarra » H »Hombres G » Te Quiero (Tab)

Te Quiero
Hombres G

Letras, Acordes y Tabs para Guitarra, Bajo y Ukulele

  • D  Bm        F#m    Fm-F#m
    No,   no me llores
        G            A      D    A
    no me vayas a hacer llorar a mi
    D     Bm        F#m    Fm-F#m
    dame,  dame tu mano
       G          A            D      A
    intentalo mi niña, quiero verte reir.
    D         Bm
    Abrazame fuerte,
    D               Bm
    ven corriendo a mi,
    D
    te quiero, te quiero, te quiero
          G                  Gm       D  Bm-D-A
    y no hago otra cosa que pensar en ti.
    D  Bm              F#m   Fm-F#m
    Tu     ya estas dormida
       G               A            D-A
    y yo te abrazo y siento que respiras
    
  • D Bm F#m Fm/F#m G A D  Bm         F#m     Fm/F#m 
                        No,  ya no me llores
          G          A      D    A
    no me vayas a hacer llorar a mi
    D    Bm         F#m  Fm/F#m
    dame,   dame tu mano
       G            A         D       A   D
    intentalo mi ni=F1a, quiero verte reir.
    
    
                 Bm  D
    Abrazame fuerte
                   Bm  D
    ven corriendo a mi
    
    te quiero, te quiero, te quiero
          G                   Gm       D Bm D A  
    y no hago otra cosa que pensar en ti
    
    (Se toca la segunda parte del intro)
    
  • e-------------------------------------------------│
    B-------------------------------------------------│
    G-------------------------------------------------│
    D------0--0-0--------0--0-0--------0-----0-----0--│
    A--0-2-----------0-2-----------0-2---0-2---0-2----│
    E-------------------------------------------------│
    
    e----------------------------------------│-------------------------------------------------------------
    B----------------------------------------│-------------------------------------------------------------
    G----------------------------------------│-------------------------------------------------------------
    D------0--------4----4-2-----------------│-------------------0--------------0-0-0-2-4-2-------------0--
    A--0-2------0-2----------------4-4-------│--4-2-0----------2---0-0----0-2-4-------------0-0-0-0-2-4----
    E-------------------------2-2-------2-2--│--------3-3----3---------------------------------------------
    
    
     D Bm            F#m   Fm-F#m
    No,   ya no me llores
    
       G            A
    No me vayas a hacer
    
  • G----------------------------   G---------------------
    D------0--0-0--------0--0-0--   D------0-----0-----0--
    A--0-2-----------0-2---------   A--0-2---0-2---0-2----
    E----------------------------   E---------------------
    
    Guitar 1
    Riff 3
           D        Bm          F#m     Fm/F#m
    G----------------------------------------
    D------0--0-----4---4-4-2-----------------
    A--0-2------0-2----------------4-2-------
    E-------------------------2-2-------2-2-
    
    Guitar 2
    Riff 4
    e------5---------7----------------9/-8/-9-----
    B------7---------7---------------10/-9/10-----
    G------7---------7---------------11/10/11-----
    D------7---------9---------------11/10/11-----
    A------5---------9----------------------------
    
  • E-----------------------------------------------------------------
    B-----------------------------------------------------------------
    G-----------------------------------------------------------------
    D-----------------------------------------------------------------
    A---0--2--5--5--5---0--2--5--5--5----0--2--5--0--2--5----0--2---5-
    E-----------------------------------------------------------------
    
    EN ESTA PARTE ENTRA LA BATERIA Y DESPUES UN ACORDE DE RE (D) 
    E----------------------------------
    B----------------------------------
    G----------------------------------
    D---------------4-4--4-2-----------
    A--0-2-5-5--0-2--------------4-4---
    E------------------------2-2-----2-
    
    E----------------------------------
    B----------------------------------
    G----------------------------------
    D----------------------------------
    A-----4--2--0--------0--2--4--0----
    
  • esta es una correccion del solo creo que asi se escucha mucho mejor
    PERO ESCUCHEN BIEN EL SOLO EN LA CANCION DE LO CONTRARIO ES INUTIL
    
    v=vibrato  h=hamer
    
    SOLO
    
    
    e—5h7-5h7-7-5----------------------------------------------------
    B------------7-8-7-5---------------------------------------------
    G-------------------7-7-9v-9-9-9v-9-9-9-7------------------------
    D--------------------9-------------------9-7-9-7-9-7-------------
    A---------------------------------------------------9-10-9-7--7-9
    E-----------------------------------------------------------10—--
    
    e-----------------------------------14—-17-15-14-15-17-17-19-19-19
    B---------------10h12-12-12-12-10-15—15---------------------------
    G----7-9-9-9-9-7--------------------------------------------------
    D-7-9-------------------------------------------------------------
    A-----------------------------------------------------------------
    E-----------------------------------------------------------------
    
    e-19-19-17-15-15-----10-----10---
  • INTRO:
    
    G|----------------------------------------------------|
    D|----------------------------------------------------|
    A|--------5--5-5--------5--5-5--------5--------5------|
    E|--5--7----------5--7----------5--7-----5--7-----5--7|
    
    G|----------------------------------------------------|
    D|----------------------------------------------------|
    A|--5-------------------------------------------------|
    E|----------------------------------------------------|
    
    VERSO:
    
    G|----------------------------------------------------|
    D|----------------------------------------------------|
    A|--5--5--5-5-----------------------------------------|
    E|-------------7--7--7-7--2--2-1-2-2--3--3--3--3-3----|
    
    G|----------------------------------------------------|
    D|----------------------------------------------------|
    A|---------------5-5-5-5-5-5--------------------------|
    E|--5--5--5-5-5---------------5-----------------------|
    
    CORO:
    
    G|-------------------------------------------------
  • Modificación de Edgar Benjamìn aqui les dejo esta rola que esta 2/2
    va alguna duda o comentario a benjachido97@live.com.mx
    
    g-2-4-2-0-------  esto va con la bateria al principio
    d--------4-2-0--
    A---------------
    E---------------
    
    esto se repite tres veses
    g----------------------------------------------------------------
    d-0-------------------------------0-0-0-0-4-2--------------------
    A--0-2-2-0-----------------------------------0-0-0-0-2-0---------
    E----------2-2-2-1-2-2-2-3-3-3-5-5-5-----------------------------
    
    y luego va esto
    g----------------------------------------------------------------
    d-0------0------0-0-0-0-0-0--------------------------------------
    A---2-0-2--2-0-2------------0------------------------------------
    E-----------------------------3-3-3-3-3-3-3-3-3-3-3-3-3-3-3-3----
    
    g---------------------------------
    d-0-0----------0-0----------------
    A-----0-2-2-0-2---2-0-0-0-0-0-0-0-
    E---------------------------------
    
    se repite hasta el segundo y luego va
    
    g---------------
  • cr-crash
    c2-crash2
    rd-ride
    hh-hi hat (X entre abiertos)(o abrir y cerrarlos)
    t1-tom1
    ta-tarola
    tp-tom de piso
    bo-bombo
      (f-flam)
      (<-mayor intensidad)
    
    6/8
    
    Intro
    
      (-----x3-----)            (-----x7-----)
    Hh|------------|------------|x-x-x-x-x-x-|x-x-o-x-----|
    T1|------------|------------|------------|----------o-|
    Ta|------------|f-----f-----|------o-----|------o-oo--|
    Bo|------------|--o-o---o-o-|o---o-----o-|o---o-------|
      (1 + 2 + 3 + |1 + 2 + 3 + |1 + 2 + 3 + |1 + 2 + 3 + )
    
    
    1er verso
    
                   (-----x6-----)            (-----x7-----)      < < <
    Cr|x-----------|------------|------------|------------|------------|
    Hh|--x-x-x-x-x-|x-x-x-x-x-x-|x-x-o-x-----|x-x-x-x-x-x-|x-x-x-X-X-X-|
    T1|------------|------------|----------o-|------------|------------|
    Ta|------o-----|------o-----|------o-oo--|------o-----|------o-o-o-|
    Bo|o---o-----o-|o---o-----o-|o---o-------|o---o-----o-|o---o-------|
      (1 + 2 + 3 + |1 + 2 + 3 + |1 + 2 + 3 + |1 + 2 + 3 + |1 + 2 + 3 + )
    
    
    Pre
  • +
    ¡Colabora con nosotros!
    Envíanos tu versión de esta canción
  • Tutorial
    Te quiero - Hombres G - Como tocar en guitarra
    4:01
  • Tutorial
    HD
    Como tocar te quiero de hombres g en guitarra - Facil
    7:36
  • Tutorial
    HD
    Como tocar Te quiero en guitarra acustica acordes (HD)
    Tutorial
    6:04
  • Tutorial
    HD
    Como tocar Te Quiero en Guitarra (HD)
    Tutorial Principiantes
    4:20
  • Tutorial
    HD
    Como Tocar Te Quiero En Guitarra (Versión para cantar - principiantes)
    10:51

Letra de Te Quiero
No, ya no me llores
no me vayas a hacer llorar a mi
dame, dame tu mano
intentalo mi ni=F1a, quiero verte reir.
Abrazame fuerte
ven corriendo a mi
te quiero, te quiero, te quiero
y no hago otra cosa que pensar en ti
(Se toca la segunda parte del intro)
Tu, ya estas dormida
y yo te abrazo y siento que respiras
Sue~o, con tu sonrisa
te beso muy despacio en tus mejillas
Necesito verte,
donde quiera que estes,

te quiero, te quiero, te quiero
y no hago otra cosa que pensar en ti
te quiero, te quiero , te quiero
te quiero.
Abrazame fuerte,
ven corriendo a mi
dejame que te diga otra vez que te quiero,
te quiero, te quiero , te quiero,
te quiero, te quiero




[Te Quiero chords][Te Quiero cifra]
© LaCuerda.net · aviso legal · privacidad · es · en · pt · contacto