Acordes de Guitarra » H »Hombres G » Temblando (Tab)

Temblando
Hombres G

Letras, Acordes y Tabs para Guitarra, Bajo y Ukulele

  •     LA                   RE      MI
    E|-------0---0--9--7--5---------------0-------------2----------------|
    B|--2--------------------3-------0------------------V----------------|
    G|-----2-------------------2-------1----------------E----------------|
    D|-----------------------0-------2------------------C----------------|
    A|--0-----------------------------------------------E----------------|
    E|--------------------------------------------------S----------------|
    
        LA           RE    MI      LA
    Temblando, y con los ojos cerrados
        RE     MI    FA#m          DO#
    El cielo esta nublado  y a lo lejos tu
    
       LA       RE        MI    LA
    Hablando de lo que te ha pasado
      RE    MI
    Intentando
                                                                  EADGBe
      FA#m             FA#m/Fa       FA#m/Mi            FA#m/FA   XX3222
    Ordenar palabras para no hacerme tanto daño         FA#m/RE#  XX1222
    
  •    A
    Temblando, y
         D    D/E      A
    con los ojos cerrados
        D       E     F#m
    el cielo esta nublado
            C#m
    y a lo lejos tu
    
        A
    Hablando
        D        D/E    A
    de lo que te ha pasado
       D     E      F#m
    intentando ordenar palabras
     Bm
    para no hacerme tanto da~o
     Bm           D           E
    tanto da~o y yo sigo temblando.
    
    
  •     A
    TEMBLANDO
    D     E         A
    CON LOS OJOS CERRADOS
    D       E         F# 
    EL CIELO ESTÁ NUBLADO
                C#  (I,II/11)
    Y A LO LEJOS TU.
    
      A
    HABLANDO
    D       E         A
    DE LO QUE TE HA PASADO
      D   E       F# 
    INTENTANDO ORDENAR PALABRAS
    A1            F#M7      A+5
    PARA NO HACERME TANTO DAÑO   
    D            E                A-D-E-A-D-E
    TANTO DAÑO Y YO SIGO TEMBLANDO.
    
    
  • F#m*  = 2 2 3 2 2 2
    F#m** = 2 2 2 2 2 2
    *     = 1 2 2 0 X X
    ________________________________________________________________
    
    Intro: A  D  E  A  D  E
    
        A
    Temblando, y
        D     E      A
    con los ojos cerrados
        D       E     F#m
    el cielo esta nublado
            C#
    y a lo lejos tu.
    
        A
    Hablando
       D         E    A
    de lo que te ha pasado
    
  •     LA                   RE      MI
    E|-------0---0--9--7--5---------------0-------------2----------------|
    B|--2--------------------3-------0------------------V----------------|
    G|-----2-------------------2-------1----------------E----------------|
    D|-----------------------0-------2------------------C----------------|
    A|--0-----------------------------------------------E----------------|
    E|--------------------------------------------------S----------------|
    
        LA           RE    MI      LA
    Temblando, y con los ojos cerrados
        RE     MI    FA#m       DO#m
    El cielo esta nublado  y a lo lejos tu
    
       LA       RE        MI    LA
    Hablando de lo que te ha pasado
      RE    MI
    Intentando
    
      FA#m                   DO#m                   FA#m
    Ordenar palabras        para no hacerme        tanto daño
    
  •     A                   D      E     A                 D      E
    E|--0--------------------------0--0--0------------------------0---------| 
    B|---------------2--0-------3---------------2---2--0-------3------------|
    G|-------2-2---------2---2----------------2----------2---2--------------|
    D|-----2------2---------0------2--------2-----2--------0------2---------|
    A|--0--------------------------------0----------------------------------|
    E|-----------------------------0------------------------------0---------|
    
         A            D    E      A
    Temblando, y con los ojos cerrados
         D            E           F#m   C#
    el cielo esta nublado  y a lo lejos tu
    
        A       D         E    A
    Hablando de lo que te ha pasado
       D    E          
    intentando 
    
    
    
    
  • Intro:
    
    Para facilitarles el tocarla pueden acomodar sus dedos de esta forma:
    Traste
      9  10  11  12
    6|---|---|---|---|
    5|-o-|---|---|---|
    4|-o-|---|-o-|---|
    3|-o-|---|---|---|
    2|-o-|-o-|---|-+-|para que el meñique(+)sea
    1|-o-|---|---|-+-|el que se mueva(en algunos casos 
                      debes subir o bajar dedos
                                                                                Tembla..
    1|-12---------------9-------------------------------------9-----------------------||
    2|----------10--------12-10-10-------12--------------------12-10-10-------12---10-||
    3|-------9--------9-------------------------9-9-------9-----------------9---------||
    4|----11--------------------------11-11-------------11---------------11---11---11-||
    5|-------------------------------9----------9-9----9------------------------------||
    6|--------------------------------------------------------------------------------||
    
    verso:
                                               con....
    ||----
  • Arriba se muestran los adornos de la mano derecha;
    enmedio se muestran los acordes de la mano izquierda
    y abajo la letra. 
    (Todos los tonos deben tocase arpegiados)
    
    
    Introducción:
    Mano Derecha:   Mi6 La5 Do#6 Si5 La5 La5 Si5 
    Mano Izquierda: La                   Re  Mi
    
    Mano Derecha:   Mi5 Mi5 Do#6 Si5 La5 La5 Si5
    Mano Izquierda: La                   Re  Mi
    
    
                                     Do#6 Si5 La5 La5 
    Temblando, con los ojos cerrados
    La             Re    Mi       Re
    
                                           Do#6 Do#7
    El cielo está nublado, y a lo lejos tú.
    
    
    Hablando de lo que te ha pasado
    La           Re        Mi   La        
     
    
    intentando ordenar palabras para no hacerme tanto daño
          Re   Mi   Fa#m           Do#m          Fa#m     
    
    
    tanto daño y yo sigo temblando.
    La+5         Re           Mi 
    
    Mano Derecha:   Mi6 La5 Do#6 Si5 La5 La5 Si5 
    Mano Izquierda: La                   Re  Mi
    
    Mano Derecha:   Mi5 Mi5 Do#6 Si5 La5 La5 Si5
    M
  • +
    ¡Colabora con nosotros!
    Envíanos tu versión de esta canción
  • Tutorial
    HD
    Temblando - Hombres G - Guitarra como tocar
    3:10
  • Tutorial
    Como tocar Temblando - Hombres G
    3:19

Letra de Temblando
Temblando, y
con los ojos cerrados
el cielo esta nublado
y a lo lejos tu
Hablando
de lo que te ha pasado
intentando ordenar palabras
para no hacerme tanto da~o
tanto da~o y yo sigo temblando.
De la mano
y con mucho cuidado
os besasteis en silencio
donde no habia luz.
Y me hace gracia
tu manera de contarlo
como quien cuenta que ha pensado
que ha decidido que seguimos
siendo amigos y yo estoy temblando.
y llorando, habia jurado
que nunca iba a llorar.
Escuchando cada palabra
que no quiero escuchar.
Desgarrandome, suplicandote
intentando hacerte recordar
Pero tu, solo dices:
voy a colgar.
esta cancion se la dedico a la manzanita




[Temblando chords][Temblando cifra]
© LaCuerda.net · aviso legal · privacidad · es · en · pt · contacto