Tablatura para Guitarra de Hombres G: Devuelveme a mi chica
Conexión · Inscripción
Letras y Acordes
Pantalla Completa
Imprimir
Versión Texto
Añadir Favorito
Otras Versiones

Mostrar Diagramas
Desfile Automático
Manipular Acordes
Formato del Texto


Devuelveme a mi chica(TAB)

Hombres G

calidad:
homg0667
AUTOR: David Summers
ALBUM: Los Singles 1984-1993
Enviado por JAIR
pues es la rola mas chida que e pasado jajs


pues manass el solo traten de darle el ritmo


e--10p5p1--1-3-1-3-1-3/5---9/10-13-10p1-1-3-1-3-1-3/5-7-5
B--------------------------------------------------------
G--------------------------------------------------------
D--------------------------------------------------------
A--------------------------------------------------------
E--------------------------------------------------------

e--7-6-5-----5-----------10----------5----
B--7-6-5---5--5-----1O------10-----5---5--
G--7-6-5--5-5--5--10---10-----10--5-5---5-
D-----------------------------------------
A-----------------------------------------
E-----------------------------------------

e---------5/7-7/9-9/11-----
B-----3/5------------------
G-3/6----------------------
D--------------------------
A--------------------------
E--------------------------

Y ESTA ES LA LETRA NECECITE AYUDA JAJA

(Bm) (F#m) Estoy llorando en mi habitacion
(Bm) (F#m) Todo se nubla a mi alrededor
(F#m)-(Fm)-(Em) (Bm) Ella se fue con un niño pijo
(F#m)-(Fm)-(Em) (Bm) En un ford fiesta blancooooo Y en un yersi amarillo
(Bm) (F#m) Por el parque los veo pasar
(Bm) (F#m) Cuando se besan la paso fatal
(F#m)-(Fm)-(Em) (Bm) Voy a vangarme de ese marica
(F#m-(Fm)-(Em) (F#m) Voy a llenarle el cuellooooo De polvos pica pica Coro:
Bb F Sufre, mamón
Bb F devuélveme a mi chica
Bb F o te retorcerás
G C entre polvos pica-pica
(Bm) (F#m) Le he quemado su yersi
(Bm) (F#m) Se ha comprado cinco o seis
(F#m)-(Fm)-(Em) (Bm) Voy a destrosarle el coche
(F#m)-(Fm)-(Em) (F#m) Lo tengo preparadoooo Voy esta noche
(Bm) (F#m) No te reiras nunca mas de mi
(Bm) (F#m) Lo siento nene vas a morir
(F#m)-(Fm)-(Em) (Bm) Tu me quitaste lo que mas queria
F#m)-(Fm)-(Em) (F#m) Y volvera conmigoooo Volvera algun dia Coro:
Bb F Sufre, mamón
Bb F devuélveme a mi chica
Bb F o te retorcerás
G C entre polvos pica-pica
Bb F Sufre, mamón
Bb F devuélveme a mi chica
Bb F o te retorcerás
G C entre polvos pica-pica BUENO ESO ES TODO CUALQUIERDUDA A MI CORREO YES_1994@HOTMAIL.ES
Este fichero es trabajo propio de su transcriptor y representa su interpretación personal de la canción. El material contenido en esta página es
para exclusivo uso privado, por lo que se prohibe su reproducción o retransmisión, así como su uso para fines comerciales.

© LaCuerda.net · Aviso Legal · Privacidad