Acordes de Guitarra » H »Hombres G » Si yo no te tengo a tí (Tab)

Si yo no te tengo a tí
Hombres G

Letras, Acordes y Tabs para Guitarra, Bajo y Ukulele

  •      A                E 
         Yo no tengo nada 
                             A 
         que me haga sonreir 
                                 E 
         nadie que me abrace fuerte 
                       E 
         y me haga feliz. 
    
                 Bm 
         No tengo nada qué hacer 
                 F#m 
         no tengo por qué vivir 
                 Bm 
         no tengo nada de nada 
             E 
         si no te tengo a ti. 
    
         A                    E           A 
         Solo quiero que estes serca de mi 
    
  • INTRO: (A - F#m) x2
    
    VERSO 1:
    
    A            E7                   A
    Yo no tengo nada que me haga sonreír
    A                   E7                  A
    nadie que me abrace fuerte y me haga feliz
    Bm
    no tengo nada que hacer
    F#m
    no tengo por que vivir
    Bm
    no tengo nada de nada
       D             E7
    si no te tengo a ti
    
    VERSO 2:
    
    A               E7              A
    
  •     A
    PM.................................
    e|------------------------------------|
    B|------------------------------------|
    G|---2-2-1h2--2-2-1h2--2-2-1h2--2-2-1-|
    D|---2-2-2----2-2-2----2-2-2----2-2-2-|
    A|------------------------------------|
    E|------------------------------------|
    
    
    Riff 2
    *NOTA: USAR CEJILLA EN 1ER TRASTE, PERO SOLO TOCAS 3RA Y 4TA CUERDA
        F#
    PM.................................
    e|------------------------------------|
    B|------------------------------------|
    G|---2-2-1h2--2-2-1h2--2-2-1h2--2-2-1-|
    D|---4-4-4----4-4-4----4-4-4----4-4-4-|
    A|------------------------------------|
    E|------------------------------------|
    
  • e------------------------------------------------------
    B------------------------------------------------------
    G------------------------------------------------------
    D----7-7-6-7-7-6-7-7-6-7-7--7-7-6-7-7-6-7-7-6-7-7------
    A----7-7-7-7-7-7-7-7-7-7-7--7-7-7-7-7-7-7-7-7-7-7------
    E------------------------------------------------------
        
        (RIFF 2)
    
    
    e---5--5--4--5--5--4--5--5--4--5--5--------------------
    B---5--5--5--5--5--5--5--5--5--5--5--------------------
    G---4--4--4--4--4--4--4--4--4--4--4--------------------
    D------------------------------------------------------
    A------------------------------------------------------
    E------------------------------------------------------
    
        (RIFF 3)
    
    e--------5-------10----------7-------------------------
    
  • Preintro	
    G|------------------------------------------
    D|------------------------------------------
    A|-0--------------------0-------------------
    E|----------2-------------------------2-----
    (Silencio hasta "Yo no tengo a nadie sobre quien escribir...")
    
    Intro 
    G|------------------------------------------
    D|---2---2-------2---2---2------------------
    A|-0---0---2---2---0---0--------------------
    E|-----------2------------------------------
    
    
    Verso
    G|---------------------------------------------------------------------
    D|-------------2--2--2--2--------------2--2--2--2----------------------
    A|--0--0--0--0-------------0--0--0--0-------------2--2--2--2-----------
    E|-----------------------------------------------------------2--2--2--2
    
    G|---------------------------------------------------------------------
    D|-------------2--2--2--2------------2--2--2--2------------2--2--2--2--
    A|--2--2--2--2------------0--0--0--0------------0--0--0--0-------------
    E|---------------------
  • +
    ¡Colabora con nosotros!
    Envíanos tu versión de esta canción

Letra de Si yo no te tengo a tí
Yo no tengo nada
que me haga sonreir
nadie que me abrace fuerte
y me haga feliz.
No tengo nada qué hacer
no tengo por qué vivir
no tengo nada de nada
si no te tengo a ti.
yo no tengo a nadie sobre quien escribir
nadie que se enfade
y nadie con quien discutir.
No tengo a nadie
con quién intentar sobre vivir
no tengo con quien bailar
descalzos por madrid.
Si yo no te tengo a ti
si no estás cerca de mi
si no me besas me abrasas
qué será de mi sin ti.
Si yo no te tengo a ti,
par qué quiero vivir
si yo no te tengo a ti.
Si yo no te tengo a ti
para qué seguir
par qué escribir canciones
a quién quiero mentir.
Para que "un par de palabra"
"Te quiero y no lloraré"
para qué todas esas lágrimas
que caen sobre un papel.
Si no te tengo a ti....(etc.)




[Si yo no te tengo a tí chords][Si yo no te tengo a tí cifra]
© LaCuerda.net · aviso legal · privacidad · es · en · pt · contacto