Tablatura para Guitarra de Hombres G: Devuelveme a mi chica
Conexión · Inscripción
Letras y Acordes
Pantalla Completa
Imprimir
Versión Texto
Añadir Favorito
Otras Versiones

Mostrar Diagramas
Desfile Automático
Manipular Acordes
Formato del Texto


Devuelveme a mi chica(TAB)

Hombres G

calidad:
homg0664
AUTOR: David Summers
ALBUM: Los Singles 1984-1993
Enviado por Eduardo, basado en hard
1er solo


e----10--------------------------------------10--10--13--10--
B----10----10-----------8--------8-------10------------------
G-------------10---10-------10-----10------------------------
D------------------------------------------------------------
A------------------------------------------------------------
E------------------------------------------------------------

e--------------------------------------------------------
B---10------------------------------10--13--10--10--9---8
G--------10----12----10----12---10-----------------------
D--------------------------------------------------------
A--------------------------------------------------------
E--------------------------------------------------------

e---------------------------10------------------------------
B------8------------------------10---------------8----------
G----------7------------10----------10----7---------7-------
D---8---------8----5--------------------------8--------8---5
A-----------------------------------------------------------
E-----------------------------------------------------------

e---------------------8/10---8---10---12---10
B---------------8/10-------------------------
G----------7/9-------------------------------
D----5/7-------------------------------------
A--------------------------------------------
E--------------------------------------------
Este fichero es trabajo propio de su transcriptor y representa su interpretación personal de la canción. El material contenido en esta página es
para exclusivo uso privado, por lo que se prohibe su reproducción o retransmisión, así como su uso para fines comerciales.

© LaCuerda.net · Aviso Legal · Privacidad