Acordes de Guitarra » H »Hombres G » un Par de Palabras (Tab)

un Par de Palabras
Hombres G

  • Letra y Acordes
    INTRO: Em C G D (2)
    
    1)
    Em         C              G      D 
    SE QUE NO QUIERES NI ESCUCHARME 
    Em         C         G  D
    SE QUE YA TODO TERMINO 
    Am (A |----O--2--3----|)
    Y YO NO QUIERO HABLARTE
    C                 D               D7
    SOLO ESCRIBIRTE UNA CANCION UH UH UH UH  
    
    1)Y ENTONCES TENDRAS QUE ESCUCHARME
    Y POR LA RADIO OIRAS MI VOZ 
    INTENTARE TOCARTE EN TU PEQUE~O CORAZON UH UH UH UH
    
    2)
           C       Am      C          G
    Y UNA LAGRIMA TUYA MOJARA ESTE PAPEL
             C        D         G    C  G
    
  • Letra y Acordes
    Em-C-G(2 VECES)
    
    Em           C             G
    Se que no quieres ni escucharme
    Em         C        G
    Se que ya todo termino
    Am
    Y yo no quiero hablarte
    C                D
    Solo escribirte una canción uh uh uh uh.
    
    Em          C              G
    y entonces tendrás que escucharme
    Em         C             G
    y por la radio oirás mi voz
    Am              C
    Intentare tocarte
                       D
    En tu pequeño corazón uh uh uh uh
    
    
  • Tablatura
          Em         C       G
    
    E-----0-0-----0-0-----3-3~~3--------------------------------|
    B-----0-0-----1-1-----3-3~~3--------------------------------|
    G-----0-0-----0-0-----0-0~~0--------------------------------|
    D-----2-2---2---------0-0~~0--------------------------------|
    A---2-----3---------2---------------------------------------|
    E-0---------------3-----------------------------------------|
    
    Las dos primeras líneas del verso van con el riff 1 (2 veces), y luego, después del G: (riff 2)
    
      Am       C      D (sus4-sus2)
    
    E-0~~---------0---2-3p2-0h2---2-3p2-0h2---------------------|
    B-1~~---------1---3-3---3-----3-3---3-----------------------|
    G-2~~---------0---2-2---2-----2-2---2-----------------------|
    D-2~~-------2---0-----------0-------------------------------|
    A-0~~-0-2-3-------------------------------------------------|
    E-----------------------------------------------------------|
    
    
  • Tablatura
              B  -bend (completo)
              h  -hammer-on
    
    Acordes:
           E A D G B E
    Em     X 2 2 X X X
    C      X 3 2 X 1 X
    D      X X X 2 3 2
    D sus4 X X X 2 3 3
    G      3 2 X X X 3
    Bm     2 4 4 3 2 2
    Am     X X 2 2 1 X
    
    INTRO (Riff 1)
    
    Em              C      G
    e----------------------3-----------I
    B---------------1------------------I
    G----------------------------------I
    D------2~-------2------------------I
    
  • Tablatura
      Em         C       G            |de LA introduccion|
    E-----0-0-----0-0-----3-3~~3----|------------------|--------|
    B-----0-0-----1-1-----3-3~~3----|------------------|--------|
    G-----0-0-----0-0-----0-0~~0----|------------------|--------|
    D-----2-2---2---------0-0~~0----|0h2-2-2-2p0-------|--------|
    A---2-----3---------2-----------|------------2-----|--------|
    E-0---------------3-------------|------------------|--------|
    
    Riff 2
      Am       C      D 
    E-0~~----------0------2-3p2------2-3p2-0h2------------------|
    B-1~~----------1------3-3--------3-3---3--------------------|
    G-2~~----------0------2-2--------2-2---2--------------------|
    D-2~~--------2------0----------0----------------------------|
    A-0~~--0-2-3------------------------------------------------|
    E-----------------------------------------------------------|
    INTRODUCCION
    -con el Riff 1-
    
    VERSO 1
    
  • Tablatura
    en el último blend de esa misma linea [----10)--8 ] se debe regresar
    la cuerda a su posición original.
    
    (Riff 1)
         Em           C         G
    e-----------------------------------------------------------|
    B-----------------------------------------------------------|
    G----9-9-9-9-9-9-9------------------------------------------|
    D--------------------5--------------------------------------|
    A----------------------7-5-----------5-----5----------------|
    E--------------------------------5h7---5h7---7-7-5-3-2-0----|
    
    (Riff 1)
          Em           C        G
    e------------------------------------------------------------|
    B--------------------------10b12-10b12-10b12-10b12--8-10b12--
    g----9-9-9-9-9-9-9-------------------------------------------|
    D--------------------5---------------------------------------|
    A----------------------7-5
    
    
  • Tablatura
         Em           C         G
    e------------------------------------------------------------|
    B------------------------------------------------------------|
    G----9-9-9-9-9-9-9-------------------------------------------|
    D---------------------10-------------------------------------|
    A------------------10----------------5-----5-----------------|
    E------------------------12-10---5-7---5-7---5-7-5-0---------|
    
    (Riff 1)
          Em           C        G
    e------------------------------------------------------------|
    B----------------------------------10)-10)-10)-10)-10)--8----|
    G-----9-9-9-9-9-9-9------------------------------------------|
    D---------------------10-------------------------------------|
    A------------------10----------------------------------------|
    E------------------------12-10-------------------------------|
    
       (Riff 2)
         Am            C
    e------------------------10-8-7-8----------------------------|
    
  • +
    ¡Colabora con nosotros!
    Envíanos tu versión de esta canción

Letra de un Par de Palabras
1)
SE QUE NO QUIERES NI ESCUCHARME
SE QUE YA TODO TERMINO
Y YO NO QUIERO HABLARTE
1)Y ENTONCES TENDRAS QUE ESCUCHARME
Y POR LA RADIO OIRAS MI VOZ
INTENTARE TOCARTE EN TU PEQUE~O CORAZON UH UH UH UH
2)
Y UNA LAGRIMA TUYA MOJARA ESTE PAPEL
1)
Y ME ODIARAS CUANDO ME VEAS
Y NI SIQUIERA ME MIRARAS
PROBABLEMENTE TE REIRAS
SIEMPRE TE A GUSTADO INTERPRETAR UH UH UH UH
1)
PERO LA PELICULA TERMINO
Y YA SOLO SE OYE MI CANCION
PUES CIERTAS FRASES
VAN PERFORANDO TU CORAZON UH UH UH UH
2)
Y SABRAS QUE TE QUIERO Y QUE SIEMPRE TE QUERRE
2)
5A CUERDA OSEA EL ARREGLO DESCRITO.



© LaCuerda.net · aviso legal · privacidad · contacto