Acordes de Guitarra » A »Attaque 77 » No me arrepiento de este amor (Tab)

No me arrepiento de este amor
Attaque 77

Letras, Acordes y Tabs para Guitarra, Bajo y Ukulele

  •          Gm                 Bb
    
    e:--------------------------------------------|
    B:--------------------------------------------|
    G:--------------------------------------------|
    D:--------------------------------------------|
    A:--------------------------------------------|
    E:---3-3-5-6-6-6-5-5-3--6-6-8-10-10-10-8-6-10-|
    
            F                     Gm
    ----------------------------------------------|
    ----------------------------------------------|
    ----------------------------------------------|
    ----------------------------------------------|
    ------------------------------5---------------|
    -10-10-10-10-11-10-10-8-6-5-5---5-8-8-6-5-3---|
    
          Gm
    NO ME ARREPIENTO DE ESTE AMOR
               Bb
    
  •           Am
    No me arrepiento de este amor
                C
    aunque me cueste el corazón,
                  G
    amar es un milagro y yo te amé
                 Am
    como nunca jamás imaginé.
    
                   Am
    Tiendo a arrancarme de tu piel,
             C
    de tu mirada, de tu ayer,
                      G
    yo siento que la vida se nos va,
                     Am
    y que el día de hoy no vuelve más.
    
             C
    DESPUÉS DE CERRAR LA PUERTA
    
  • Intro: SOLm SIb FA SOLm (2 veces)
    
              SOLm
    No me arrepiento de este amor,
               SIb
    aunque me cueste el corazón,
                FA
    amar es un milagro y yo te ame,
                SOLm
    como nunca jamás lo imagine.
    
            SOLm
    Tiendo arrancarme de tu piel,
           SIb
    de tu mirada de tu ser,
              FA
    yo siento que la vida se nos va
             SOLm
    y que el día de hoy no vuelve más.
    
    
  •                      G5                                  Bb5
    e|-----------------|-----------------|-----------------|-----------------|>
    B|-----------------|-----------------|-----------------|-----------------|>
    G|-----------------|-----------------|-----------------|-----------------|>
    D|-----------------|-----------------|-----------------|-----------------|>
    A|-----------------|-----------------|-------------3-3-|-5---5-5-3-3---5-|>
    E|---------3---5---|-6---6-6-5-5-5-3-|(3)----3-6-6-----|-------------6---|>
       1 + 2 + 3 + 4 +   1 + 2 + 3 + 4 +   1 + 2 + 3 + 4 +   1 + 2 + 3 + 4 + 
    
                         F5                                  G5
    e|-----------------|-----------------|-----------------|-----------------|>
    B|-----------------|-----------------|-----------------|-----------------|>
    G|-----------------|-----------------|-----------------|-----------------|>
    D|-----------------|-----------------|-----------------|-----------------|>
    A|(5)----5-5-5-6-5-|-3---3-3---------|-----------3-5-3-|-----------------|>
    E|-----------------|---------6-6-6-5-|(5)----5-5-------|-6---6-6-5-5-5-3-|>
       1 + 2 + 3 + 4 +   1 + 2 + 3 + 4 +   1 + 2 + 3 + 4 +   1 + 2 + 3 + 4 + 
    
                         G5                                  Bb5
    e|-----------------|-----------------|-----------------|-----------------|>
    
  • punteo final:
    
    e|-------------------------------------------------------------------
    B|------------------------------------------------------------8----8-
    G|---------------------------------------------------------7b---7b---
    D|-------------8-7--------------------8--10--8-10----8---------------
    A|-10--10-8-10------10-8----8--8--10--------------10---10------------
    E|-----------------------10------------------------------------------
    
    -------6-----------6-------------8b--8v--6--8--6------------
    -8-6-----8-6-8-6-----8-6-8-6----------------------8--15--15-
    -----7-----------7-----------7-7----------------------------
    ------------------------------------------------------------
    ------------------------------------------------------------
    ------------------------------------------------------------
    
    -----15----15--------15-------15-------15----------15-------15-------
    -15-----15----15-15-----15-15----15-15----15-15-15----15-15----15-15-
    ---------------------------------------------------------
  •                      Gm                                  Bb
    e|-----------------|-----------------|-----------------|-----------------|
    B|-----------------|-----------------|-----------------|-----------------|
    G|-----------------|-----------------|-----------------|-----------------|
    D|-----------------|-----------------|-----------------|-----------------|
    A|-----------------|-----------------|-------------3-3-|-5---5-5-3-3---5-|
    E|---------3---5---|-6---6-6-5-5-5-3-|-------3-6-6-----|-------------6---|
                         F                                   Gm
    e|-----------------|-----------------|-----------------|-----------------|
    B|-----------------|-----------------|-----------------|-----------------|
    G|-----------------|-----------------|-----------------|-----------------|
    D|-----------------|-----------------|-----------------|-----------------|
    A|(5)----5-5-5-6-5-|-3---3-3---------|-----------3-5-3-|-----------------|
    E|-----------------|---------6-6-6-5-|-------5-5-------|-6---6-6-5-5-5-3-|
                         Gm                                  Bb
    e|-----------------|-----------------|-----------------|-----------------|
    B|-----------------|-----------------|-----------------|-----------------|
    G|-----------------|-----------------|-----------------|-----------------|
    D|-----------------|-----------------|-----------------|-----------------|
    A|-----------------|-----------------|-------------3-3-|-5---5-5-3-3---5-|
    
  • INTRODUCCION Y VERSO
    A||--|--------------------------|--------------------------|
    E||--|--3--3--3--3--3--3--3--3--|--3--3--3--3--3--3--3--3--|
    
    A--------------------------|--------------------------|
    E--6--6--6--6--6--6--6--6--|--6--6--6--6--6--6--6--6--|
    
    A--------------------------|--------------------------|
    E--1--1--1--1--1--1--1--1--|--1--1--1--1--1--1--1--1--|
    
    A--------------------------|--------------------------|
    E--3--3--3--3--3--3--3--3--|--3--3--3--3--3--3--3--3--|
    
    CORO:
    A--------------------------|--------------------------|
    E--6--6--6--6--6--6--6--6--|--6--6--6--6--6--6--6--6--|
    
    A--------------------------|--------------------------|
    E--1--1--1--1--1--1--1--1--|--1--1--1--1--1--1--1--1--|
    
    A-6--6--6--6--6--6--6--6---|--1--1--1--1--1--1--1--1--|
    E--------------------------|--------------------------|
    
    A--------------------------|--------------------------|
    E--1--1--1--1--1--1--1--1--|--1--1--1--1--1--1--1--1--|
    
    A--------------------------|--------------------------|
    E--
  • C : crash
    SP: splash
    RI: ride
    HH: hi hat    x-cerrado X-abierto
    R : redoblante
    B : bombo
    
    INTRO
    HH |X---X---X---X---|X---X---X---X---|X---X---X---X---|X---X---X---X---|
    R  |----o-------o---|----o-------o---|----o-------o---|----o-------o---|
    B  |o-------o-o-----|o-------o-o-----|o-------o-o-----|o-------o-o-----|
    
    HH |X---X---X---X---|X---X---X---X---|X---X---X---X---|X---X---X---X---|
    R  |----o-------o---|----o-------o---|----o-------o---|----o-------o---|
    B  |o-------o-o-----|o-------o-o-----|o-------o-o-----|o-------o-o-----|
    
    C  |x---------------|----------------|----------------|----------------|
    HH |----X---X---X---|X---X---X---X---|X---X---X---X---|X---X---X---X---|
    R  |----o-------o---|----o-------o---|----o-------o---|----o-------o---|
    B  |o-------o-o-----|o-------o-o-----|o-------o-o-----|o-------o-o-----|
    
    HH |X---X---X---X---|X---X---X---X---|X---X---X---X---|X---X---X---X---|
    R  |----o-------o---|----o-------o---|----o-------o---|----o-------o---|
    B  |o-------o-o-----|o---
  • +
    ¡Colabora con nosotros!
    Envíanos tu versión de esta canción

Letra de No me arrepiento de este amor
No me arrepiento de este amor,
aunque me cueste el corazón,
amar es un milagro y yo te ame,
como nunca jamás lo imagine.
Tiendo arrancarme de tu piel,
de tu mirada de tu ser,
yo siento que la vida se nos va
y que el día de hoy no vuelve más.
Después de cerrar la puerta,
nuestra cama espera abierta,
la locura apasionada del amooo oooor,
y entre un te quiero y te quiero
vamos remontando al cielo,
y no puedo arrepentirme de este amoo oooor.
No me arrepiento de este amor,
aunque me cueste el corazón,
amar es un milagro y yo te ame,
como nunca jamás lo imagine.
Tiendo arrancarme de tu piel,
de tu mirada de tu ser,
yo siento que la vida se nos va
y que el día de hoy no vuelve más.
Después de cerrar la puerta,
nuestra cama espera abierta,
la locura apasionada del amooo oooor,
y entre un te quiero y te quiero
vamos remontando al cielo,
y no puedo arrepentirme de este amoo oooor.




[No me arrepiento de este amor chords][No me arrepiento de este amor cifra]
© LaCuerda.net · aviso legal · privacidad · es · en · pt · contacto