Acordes de Guitarra » A »Attaque 77 » Hacelo por mí (Tab)

Hacelo por mí
Attaque 77

Letras, Acordes y Tabs para Guitarra, Bajo y Ukulele

  • intro:E-C#m-E-C#m-A-F#m-D-B
    
          E                   C#m
    yo no se lo que senti esa tarde que te vi
           A
    Yo pensaba en otras cosas,
            B
    fuiste mucho para mi.
    
    Yo creia en tus palabras,
    tu mirada me engaño
    Ahora se que no sos mia
    la culpa la tuve yo.
            A
    Yo no quise lastimarte,
           G#m
    jamas tuve esa intencion
             A
    fuimos presos de un impulso,
          F#m          B
    
  • Intro: MI - DO#m - MI - DO#m
           FA#m - SI - LA - SI
    
          MI
    Yo no sé lo que sentí
        DO#m
    Esa tarde que te vi
          LA
    Yo pensaba en otras cosas,
           SI
    Fuiste mucho para mí.
    
    Yo creía en tus palabras,
    Tu mirada me engañó
    Ahora sé que no sos mía,
    La culpa la tuve yo.
    
          LA
    Yo no quise lastimarte,
          DO#m
    
  • INTRO: E C# E C# A  B  A  B
    
    E|--------------------------------|
    B|--------------------------------|
    G|--------------------------------|
    D|--2--2---2--2--2----2--2--2-----|
    A|--2--2---2--2--2----2--2--2-----|
    E|--0--0---0--0--0----0--0--0-----|
    
    E|--------------------------------------------------|
    B|--------------------------------------------------|
    G|--------------------------------------------------|
    D|------------6------------------6------------------|
    A|------------4---7--7--6--6--4--4--7--7--6--6--4---|
    E|---------------------------------------------------|
    
    E|-----|--------------------------------------------------|
    B|-0---|--------------------------------------------------|
    G|-1---|--------------------------------------------------|
    D|-2---|------------6---------------6---------------------|
    
  • E|--------------------------------|
    B|--------------------------------|
    G|--------------------------------|
    D|--2--2---2--2--2----2--2--2-----|
    A|--2--2---2--2--2----2--2--2-----|
    E|--0--0---0--0--0----0--0--0-----|
    
    E|--------------------------------------------------|
    B|--------------------------------------------------|
    G|--------------------------------------------------|
    D|------------6------------------6------------------|
    A|-------2-4--4---7--7--6--6--4--4--7--7--6--6--4---|
    E|-0-2-4--------------------------------------------|
    
    E|-----|--------------------------------------------------|
    B|-0---|--------------------------------------------------|
    G|-1---|--------------------------------------------------|
    D|-2---|------------6---------------6---------------------|  F#  B  A  B
    A|-2---|-------2-4--4---7--7--6--6--4--4--7--7--6--6--4---|
    E|-0---|-0-2-4--------------------------------------------|
    
  • E|--------------------------------|-------------------------------------------------|
    B|-0------------------------------|-------------------------------------------------|
    G|-1------------------------------|-------------------------------------------------|
    D|-2-------2---------2----------2-|-2--1--6--6-------------------6--6---------------|
    A|-2-------2---------2----------2-|-------------7--7--6--6--4--4------7--7--6--6--4-|
    E|-0--0--0---0--0--0----0--0--0---|-------------------------------------------------|
    
    E|--------------------------------|-------------------------------------------------|
    B|-0------------------------------|-------------------------------------------------|
    G|-1------------------------------|-------------------------------------------------|
    D|-2-------2---------2----------2-|-2--1--6--6-------------------6--6---------------|
    A|-2-------2---------2----------2-|-------------7--7--6--6--4--4------7--7--6--6--4-|
    E|-0--0--0---0--0--0----0--0--0---|-------------------------------------------------|
    
    E|------------------------------|------------------|
    B|------------------------------|-------------5--4-|
    G|-2--2--2--2--1----------------|-4--4--4--4--6--4-|
    D|----------------4--4--4--4--4-|------------------|
    A|------------------------------|------------------|
    E|------------------------------|------------------|
    
  • José Camilo Verástegui Mestizo
    verastegui@hotmail.com
    Si deseas alguna tablatura para bajo puedes escribirme.
    
    
    G---------------------------------------------------------------------
    D--2-2-2-2-2-2-2-2-2-2-2-2-2-1----------------------------------------    Fig. 1
    A------------------------------4-4-4-4-4-4-4-4-4-4-4-4-4-4-4-4--------
    E---------------------------------------------------------------------
    
    
    G------------------------------------
    D------------------------------------        Fig. 2
    A--0-0-0-0-0-0-0-0-2-2-2-2-2-2-2-2---
    E------------------------------------
    
    
    G---------------------------------------------------------------------
    D---------------------------------------------------------------------    Fig. 3 
    A--0-0-0-0-0-0-0-0-0-0-0-0-0-0-0-0-2-2-2-2-2-2-2-2-2-2-2-2-2-2-2-2----
    E---------------------------------------------------------------------
    
    
    G---------------------------------------------------------------------
    D-----------------------------
  •    Hacelo por mi               
    
    
                                Ciro pertusi
    Electric Bass (finger)
    
    
    
                                        
    G||------|--9----9--9--9--9--9--9--|
    D||------|-------------------------|
    A||------|-------------------------|
    E||------|-------------------------|
    
    
                              
    --9----9--9--9--9--9--9--|
    -------------------------|
    -------------------------|
    -------------------------|
    
    
                              
    --6----6--6--6--6--6--6--|
    -------------------------|
    -------------------------|
    -------------------------|
    
    
                              
    --6----6--6--6--6--8--8--|
    -------------------------|
    -------------------------|
    -------------------------|
    
    
                              
    --9----9--9--9--9--9--9--|
    -------------------------|
    -------------------------|
    -------------------------|
    
    
                              
    --9----9--9--9--9--9--9--|
    -------------------------|
    -------------------------|
    ---------
  • C  - crash
    HH – hit-hat      x:cerrado X:abierto
    R  - redoblante
    B  - bombo
    G  - goliat
    
    C  |x---------------|----------------|----------------|----------------|
    HH |--x-x-x-x-x-x-x-|x-x-x-x-x-x-x-x-|x-x-x-x-x-x-x-x-|x-x-x-x-x-x-x-x-|
    R  |----o-------o---|----o-------o---|----o-------o---|----o-------o---|
    B  |o-----o-o-------|o-----o-o-------|o-----o-o-------|o-----o-o-------|
    
    HH |x-x-x-x-x-x-x-x-|x-x-x-x-x-x-x-x-|x-x-x-x-x-x-x-x-|x-x-x-x-x-x-x-x-|
    R  |----o-------o---|----o-------o---|----o-------o---|----o-------o---|
    B  |o-----o-o-------|o-----o-o-------|o-----o-o-------|o-----o-o-------|
    
    HH |x-x-x-x-x-x-x-x-|x-x-x-x-x-x-x-x-|x-x-x-x-x-x-x-x-|x-x-x-x-x-x-x-x-|
    R  |----o-o-----o---|----o-o-----o---|----o-o-----o---|--o-o-----o-o---|
    B  |o-------o-o-----|o-------o-o-----|o-------o-o-----|o-------o-------|
    
    HH |x-x-x-x-x-x-x-x-|x-x-x-x-x-x-x-x-|x-x-x-x-x-x-x-x-|x-x-x-x-x-x-x-x-|
    R  |----o-------o---|----o-------o---|----o-------o---|----o-------o---|
    B  |o-----o-o-------|o-----o-o-
  • Hola amigos armoniquistas,
    les mando este tema que yo arregle a mi gusto,
    y le digo que suena muy bien,,,
    a pesar de que solo soy un principiante,,,
    esta tocado en armónica de re(D),,,
    bueno espero que les sirva, pruébenlo,
    y simplemente silben la melodía de la canción,,,,,
    
    A)primeras estrofas,,,
    Desde: "yo no se lo que senti.....
    5(4)(4)44(4)5-56(6)55(4)5-(5)5(5)6(5)5(5)
    (5)66(5)5(5)5(5)5(4)
    B) Luego toca, las siguientes melodías,,,
    
    Si aun te queda algo de amor,
    (5) 5 (5) 4 4(3)4
    Dentro de tu corazón,
    (4)5655(4)5
    No me mires a los ojos,
    (4)4(3)(4)4(4)55
    Que me muero,
    5(4)(4)4
    Yo me muero,
    (4)4(3)4
    De dolor,,,,,,
    (4)44
    
    Hacelo por mi….
    (3)(4)4(4)5
    Hacelo por mi,,, i,,ii
    (3)(4)4(4)5           (5)5
    
    Espero que les sirva………….
  • +
    ¡Colabora con nosotros!
    Envíanos tu versión de esta canción

Letra de Hacelo por mí
yo no se lo que senti esa tarde que te vi
Yo pensaba en otras cosas,
fuiste mucho para mi.
Yo creia en tus palabras,
tu mirada me engaño
Ahora se que no sos mia
la culpa la tuve yo.
Yo no quise lastimarte,
jamas tuve esa intencion
fuimos presos de un impulso,
yo solo buscaba amor.
Cuando te veia en la calle,
no podia evitar
que el silencio se adueñara,
me quedaba sin hablar.
Y ahora se que no sos mia
la culpa la tuve yo,
si queres podes marcharte,
Si aun te queda algo de amor
dentro de tu corazon
no me mires a los ojos
que me muero, yo me muero de dolor...
Hacelo Por Mi
Todo eso que senti
esa tarde que te vi,
ahora ya no tiene sentido,
fue un mal sueño para mi.
Y al pensar en tu mirada,
ya no puedo sonreir
si queres podes marcharte,
Si aun queda algo de amor
dentro de tu corazon
no me mires a los ojos
que me muero, yo me muero de dolor...
Hacelo Por Mi




[Hacelo por mí chords][Hacelo por mí cifra]
© LaCuerda.net · aviso legal · privacidad · es · en · pt · contacto