Acordes de Guitarra » A »Attaque 77 » Western (Tab)

Western
Attaque 77

Letras, Acordes y Tabs para Guitarra, Bajo y Ukulele

  •          REm                    DO
    ¿Qué esperas? Producción descomunal...
             REm                      DO
    ¿Qué esperas? Hollywood no existe más
             REm                DO
    ¿Qué esperas? Sudamérica es así
             REm                    DO   (DO)
    ¿Qué esperas? Esto es pura realidad.
    
    
    ¿Qué esperas? Solucionen el final
    Superman... Nunca viene por acá
    ¿Qué esperas? Nuestro héroe es de verdad
    Nacional... Bien anónimo y mortal
    
             LAm      REm         FA            DO
    Es la historia de cada día... Siempre el mismo guion
    LAm      REm        FA         DO
    Trabas y burocracia que frustración
    
    
  • Am - C - D - Am   x2
    
              Dm                    C
    Qué Esperás Producción descomunal?
              Dm                    C
    Qué Esperás? Hollywood no existe más
              Dm                  C
    Qué Esperás? Sudamerica es así
              Dm                  C
    Qué Esperás? Esto es pura realidad.
    
    Qué Esperás? Solución en el final?
    Superman, nunca viene por aca
    Qué Esperás? Nuestro heroe es de Verdad
    Nacional, bien anónimo y mortal.
    
    Am                   C
    Es la historia de cada día
    F                   Am
    siempre el mismo guión
    
  • Intro:(Am - C - Dm - Am) x2
    
    I-0-5---0-3---0-2---0--------------I
    I----------------------3---5-------I
    I------------------------------2---I
    I----------------------------------I
    I----------------------------------I
    I----------------------------------I
    
    I-0-5---0-3---0-2---0--------------I
    I----------------------3---5-------I
    I----------------------------------I
    I----------------------------------I
    I----------------------------------I
    I----------------------------------I
    
              Dm                    Am
    Qué Esperás Producción descomunal?
              Dm                    Am
    Qué Esperás? Hollywood no existe más
    
  • INTRO:A5-C5-D5-A5
    (toca la intro sobre el riff del principio)
    RIFF 1:
      A5       C5     D5      A5
    1|----------------------------------------|
    2|----------------------------------------|
    3|-9-/14--9-/12--9-/11--9--7--9------|
    4|-x-/-x--x-/-x--x-/x----x--x--x--7---|
    5|-7-/12--7-/10--7-/9---7--5--7--x---|
    6|-------------------------------5--|
        A5     C5     D5     A5
    1|----------------------------------------|
    2|----------------------------------------|
    3|-9-/14--9-/12--9-/11--9--7----------|
    4|-x-/-x--x-/-x--x-/x----x--x--7-------|
    5|-7-/12--7-/10--7-/9---7--5--x-------|
    6|----------------------------5-------|
    
     D5P                           C5P 
     Qué Esperás Producción descomunal?
    
  • punteo final:
    
    *: ESTIRAR Y BAJAR LA CUERDA VARIAS VECES
    b: ESTIRAR LA CUERDA
    h: HUMMER
    
    e|-17*-------17-15--------------------------------------------
    B|-----------------17-15-17-15--------------------13----15-13-
    G|-----------------------------14-14--------12-14----14-------
    D|---------------------------------------14-------------------
    A|------------------------------------------------------------
    E|------------------------------------------------------------
    
    -12----15-12----12--12-12-------------15-12-
    ----15--------------------15-13----13-------
    --------------------------------14----------
    --------------------------------------------
    --------------------------------------------
    --------------------------------------------
    
    -------10------------------------------------------------------
    -10---------------12----15--------------13--13--13h12-13-12----
    -12*------12*-----14*------14b--14--16----------------------12-
    ---------------------------------------------------------------
    -----
  • INTRO/BREAK 1
    G-|----------------------------------|
    D-|----------------------777---5-777-|
    A-|-000000-333333-555555-----7-------|
    E-|----------------------------------|
    
    
       VERSO 1
    G-|---------------|
    D-|---------------|
    A-|-555555-333333-|
    E-|---------------|
    
    
       VERSO 2
    G-|------------------|
    D-|------5h7---------|
    A-|-5555-----333-----|
    E-|--------------3h5-|
    
    
       CORO 1
    G-|------------------------*--------|
    D-|------------------------*--------|
    A-|---------5--5--5--------*--------|
    E-|-5--5--5---------1--1--1*5--5--5-|
    
    
       CORO 2 DESDE LINEAS PUNTEADAS
    G-|--------|----------------------|
    D-|--------|----------------------|
    A-|-333333-|-333333-555555/777777-|
    E-|--------|----------------------|
    
    
       BREAK 2
    G-|---------------|---|----------------------|
    D-|---------------|---|----------------------|
    A-|-000000-333333-|---|-555555---------------|
    E-|---------------|---|--------111111-333333-|
                        +
    
       SOLO
    G-|-----------------------------|------------------------
  • Western
    
    R:  Ride
    Hh: Hi hat                   X: hi hats entreabiertos
    C:  Crash
    S:  Redoblante (snare drum)   
    T1: Tom 1
    T2: Tom 2
    TP: Tom de piso
    B:  Bombo de pie
    
    Intro:                                                     que esperas        
       1   2   3   4    1   2   3   4                     1   2   3   4       
    C: X---------------|----------------               C: X---------------
    R: x---x---x-x-x---|x---x---x-x-x---)x 15 veces luego ----------------
    S: ----o-------o---|----o-------o---                  ----------------
    B: o-------o-o-----|o-------o-o-----                  o---------------
    
    Verso 1:
    
    Producción descomunal…
    
       1   2   3   4    1   2   3   4    1   2   3   4    1   2   3   4                    
    C: X---------------|----------------|----------------|----------------               
    Hh:X---X---X---X---|X---X---X---X---|X---X---X---X---|X---X---X---X--- 
    S: ----o-------o---|----o-------o---|----o-------o---|----o-------o---                 
  • +
    ¡Colabora con nosotros!
    Envíanos tu versión de esta canción
  • Tutorial
    HD
    Como tocar Western de Attaque 77 INTRO RIFF
    7:21
  • Tutorial
    HD
    Como tocar Western de Attaque 77 VERSO Y ESTRIBILLO
    9:36
  • Tutorial
    HD
    Como tocar Western de Attaque 77 DEMO
    4:47
  • Tutorial
    HD
    Como tocar Western de Attaque 77 SOLO
    7:30
  • Tutorial
    HD
    WESTERN ATTAQUE 77 (COMO TOCAR)
    2:33

Letra de Western
Qué Esperás Producción descomunal?
Qué Esperás? Hollywood no existe más
Qué Esperás? Sudamerica es así
Qué Esperás? Esto es pura realidad.
Qué Esperás? Solución en el final?
Superman, nunca viene por aca
Qué Esperás? Nuestro heroe es de Verdad
Nacional, bien anónimo y mortal.
Es la historia de cada día
siempre el mismo guión
trabas y burocracia que frustración
lo de siempre, lo normal, todo gris...
sin final felíz, en este film... los buenos mueren.
los buenos mueren. los buenos mueren.
Observá, No te pierdas el final
Que fatal, paradoja singular
Nunca más, nuestro héroe volverá
se marchó por la puerta de atrás
Decidió evitar la corrupción
decidió, y ahi nomás se suicidó
Y pensar que fue maestro del by pass
Y murió, de un disparó al corazón.
Es la historia de cada día
siempre el mismo guión
trabas y burocracia que frustración
lo de siempre, lo normal, todo gris...
sin final felíz, siempre es así... los buenos mueren.
los buenos mueren. los buenos mueren.
los buenos mueren. los buenos mueren.
los buenos mueren. los buenos mueren. Oh oh oh ooooh




[Western chords][Western cifra]
© LaCuerda.net · aviso legal · privacidad · es · en · pt · contacto