Acordes de Guitarra » A »Attaque 77 » Chance (Tab)

Chance
Attaque 77

Letras, Acordes y Tabs para Guitarra, Bajo y Ukulele

  • E               Bm
    Día a día aprendiendo a ser...
    F#m                 A
    Miro hacia atrás y todo el camino hecho...
    E                  Bm
    Lo que pudo ser y lo que fue...
    F#m            A
    Mi oportunidad de comenzar de nuevo...
    F#m G#m C#m                  A
    ...Y lo demás... francamente no importa...
    
    E                      Bm
    Quién fui todo este tiempo no sé...
    F#m                A
    Quién soy o seré, habré cumplido un sueño...
    E                Bm
    Intentando la felicidad....
    F#m                A
    A prueba y error, la vida es un momento...
    F#m G#m  C#m                 A
    
  • e-12--12--12--12--9--12--11------9--11--------9---------
    B---------------10-------------10-------------10--------
    G---------------------------------------------9---------
    D-------------------------------------------------------
    A-------------------------------------------------------
    E-------------------------------------------------------
    
    (E)
    
    Verso:
    E               Bm
    Día a día aprendiendo a ser...
    F#m                 A
    Miro hacia atrás y todo el camino hecho...
    E                  Bm
    Lo que pudo ser y lo que fue...
    F#m            A
    Mi oportunidad de comenzar de nuevo...
    F#m G#m C#m                  A       A7
    ...Y lo demás... francamente no importa...
    
  • e-12--12--12--12------9--12--11------9--11-----------------------
    B-----------------10---------------------------------------------
    G----------------------------------------------------------------
    D----------------------------------------------------------------
    A----------------------------------------------------------------
    E----------------------------------------------------------------
    
    SOLO:
    
    e---------------------------------------------------------------------
    B------------------------------------7---7----------------------------
    G-9-11-11b13-9~~-7--7-9-9b11-7~~--/6---6---6--9-9-9h11----------------
    D------------------------------------------------------11~~--9--7--9~~
    A---------------------------------------------------------------------
    E---------------------------------------------------------------------
    
    e----------------------------------------------------------------
    B------------------------------------7---7---7-------------------
    G-9-11-11b13-9~~-7--7-9-9b11-7~~--/6---6---6----14-14-16/18-14~~~
    D----------------------------------------------------------------
    
  • MI             SIm
    Día a día aprendiendo a ser
    FA#m               LA
    Miro hacia atrás y todo el camino hecho.
    
    Lo que pudo ser y lo que fue
    Mi oportunidad de comenzar de nuevo.
    FA# SOL#  DO#m                    LA
    ...Y lo demás... francamente no importa...
    
    Quién fui todo este tiempo no sé
    Quién soy o seré, habré cumplido un sueño.
    
    Intentando la felicidad
    A prueba y error, la vida es un momento
    ...Y lo demás... francamente no importa...
    
    FA#m
    Te miro fijo y me sonreís.
    RE
    
  • +
    ¡Colabora con nosotros!
    Envíanos tu versión de esta canción

Letra de Chance
Día a día aprendiendo a ser...
Miro hacia atrás y todo el camino hecho...
Lo que pudo ser y lo que fue...
Mi oportunidad de comenzar de nuevo...
...Y lo demás... francamente no importa...
Quién fui todo este tiempo no sé...
Quién soy o seré, habré cumplido un sueño...
Intentando la felicidad....
A prueba y error, la vida es un momento...
...Y lo demás... francamente no importa...
Estribillo:
Te miro fijo y me sonreís...
No pierdo un día lejos de ti...
Mi chance es hoy...
Miro tus ojos y me veo ahí...
Aprovechando cada ocasión...
Mi chance es hoy...
Verso:
Tantas cosas que habré hecho bien...
Tantas que hice mal y que ni ahí me entero...
Cuánto que desperdicié sin ver...
Que estuviste ahí conmigo todo el tiempo...
...Y hoy lo demás francamente no importa...
Estribillo:
Te miro fijo y me sonreís...
No pierdo un día lejos de ti...
Mi chance es hoy...
Miro tus ojos y me veo ahí...
Aprovechando cada ocasión...
Mi chance es hoy...
...Y hoy lo demás francamente no importa...
Estribillo (x3)
Saludos a todos desde Adrogué...
JoaKoS




[Chance chords][Chance cifra]
© LaCuerda.net · aviso legal · privacidad · es · en · pt · contacto