Acordes de Guitarra » A »Attaque 77 » Beatle (Tab)

Beatle
Attaque 77

Letras, Acordes y Tabs para Guitarra, Bajo y Ukulele

  • G               Em  G               Em
    Sé que vos me amás, sabés que yo te amo
    
                       Am     D#            F       G   D
    mi amor por vos es único pero no es mi único amor
    
    (Acá ya es con distorción y acordes en 5ta)
    
    G               Em     G            Em
    Sé que vos me amás, sabés que yo te amo
    
                       Am     D#            F       G
    mi amor por vos es único pero no es mi único amor
    
    
    C                   G                      D               Bm
    Bueno, anoche lo pasamos muy bien, nos podríamos volver a ver
    
    C                    G                      D                  G
    Ella supo que el pendejo flasheó y por las dudas le dijo otra vez
    
  • SOL            MIm      SOL           MIm
    Sé que vos me amas... Sabes que yo te amo
                       LAm
    Mi amor por vos es único
    RE#           FA     SOL   RE
    Pero no es mi único amor.
    
    Sé que vos me amas... Sabes que yo te amo
    Mi amor por vos es único
    Pero no es mi único amor.
    
     DO                 SOL                     RE               SIm
    "Bueno, anoche lo pasamos muy bien... nos podríamos volver a ver."
     DO                 SOL                     RE                 SOL
    Ella supo que el pendejo flasheó... por las dudas le dijo otra vez.
    
    Sé que vos me amas... Sabes que yo te amo
    Mi amor por vos es único
    Pero no es mi único amor.
    
    
  •  G              Em     G            Em
    Sé que vos me amás, sabés que yo te amo,
                       Am     C            F       G   D
    mi amor por vos es único pero no es mi único amor
     G              Em     G            Em
    Sé que vos me amás, sabés que yo te amo, 
                       Am     C            F       G
    mi amor por vos es único pero no es mi único amor
    
    C                    G                      D               Bm  Riff1
     Bueno, anoche lo pasamos muy bien, nos podríamos volver a ver
    
    Riff1
    e|----------------
    B|----------------
    G|----------------
    D|----------------
    A|-5-7-9-7-5-5/7~-
    E|----------------
    
    
  • solo:
    
    e|----------------------------------------------------------
    B|----------------------------------------------------------
    G|----------------------------------------------------------
    D|-0----0s2--------0----0s2s4s7--4-2-----------5-----7------
    A|----2-----2---2-----2--------------4--7s3s7----6-----8----
    E|-------------------------------------------------8-----10-
    
    -------------|
    -------------|
    -------------|
    ------9v-12v-|
    -9s12--------|
    -------------|
    
    punteo final:
    
    primera guitarra:
    
    e|-------------------------|-|
    B|-------------------------|-|
    G|-------------------------|X|
    D|-------------------------|2|
    A|-------------------------|-|
    E|-------------------------|-|
    
    segunda guitarra:
    
    e|-11-11-11-11-11-11-11s13-|-|
    B|-11-11-11-11-11-11-11s13-|-|
    G|-------------------------|X|
    D|-------------------------|2|
    A|-------------------------|-|
    E|-------------------------|-|
    
    primera guitarra:
    
    e|-------------------------------------------
    B|-----------------------------------------
  • INTRO
    G-------------------------------------------
    D----------55-4-5---55-4-2------------------
    A--6----8---------5---------55-3-5-3-55-3-2-
    E-------------------------------------------
    
    COROS
    G----------------------------------|
    D--55---5---55---------------------| X2
    A-----5---5-----2/7-7-5-7-5-77-5---|
    E--------------------------------7-|
    
    G--------------------------------------------------
    D--77---7---77---------------------55---5---55-7-9-
    A-----7---7-----66-6-6-6-88-8-8-8-----5---5--------
    E--------------------------------------------------
    
    VERSOS
    G-----------------------------------------------------
    D---------------55---5---55---------------------------
    A--33---3---33-----5---5-----55-3-5-3-55--22-0-2-0-22-
    E-----3---3-------------------------------------------
    
    G---------------------------------------------------------
    D---------------55---5---55---------------55---5---55-----
    A--33---3---33-----5---5-----55-3-5-3-55-----5---5----5-2-
    E-----3---3------------------------------
  • Va maso menos asi. Es medio larga pero a ponerle ganas :D
    
    
    D   B   D  E   B
    Sé que vos me amas
    G              Em
    
    B  D   B  D  E  F#E
    Sabes que yo te amo
       G             Em
    
    F#   E   D   B  B  A G E
    Mi amor por vos es unico
                 Am
    
    A#A#  A#  A# A#A#A# G G
    pero no es mi unico amor
    D#            F     G
    
     E E   E E   D  C D  B   G   G
    Bueno anoche lo pasamos muy bien
    C                 G
    
    A   B  D A F#  F# G  A  B
    nos podriamos volver a ver
           D               Bm
    
    E E  E E   D      C D B    G  G
    ella supo que el pendejo flasheo
    C                   G
    
       A   B  D  A  C  C  C   B   G
    y por las dudas le dijo otra vez
              C        D          G
    
    Se que vos me amas..
    
    Pueblo chico infierno grande..
    
    B B  B   A    G B  B   B B  A  G   B G
    Asi va a ser mejor me conoces muy bien
    Em              B  Em                G
    
    B  B   A  G G   D  D   E   B  G
    no me sigas no pierdas tu tiempo
    Em              G
    
     G  C  G  C C    B  G
    Soy libre y vos tambien
        C     D         G
    
    Pueblo c
  • +
    ¡Colabora con nosotros!
    Envíanos tu versión de esta canción

Letra de Beatle
Sé que vos me amás, sabés que yo te amo
mi amor por vos es único pero no es mi único amor
(Acá ya es con distorción y acordes en 5ta)
Sé que vos me amás, sabés que yo te amo
mi amor por vos es único pero no es mi único amor
Bueno, anoche lo pasamos muy bien, nos podríamos volver a ver
Ella supo que el pendejo flasheó y por las dudas le dijo otra vez
Sé que vos me amás, sabés que yo te amo,
mi amor por vos es único pero no es mi único amor
Pueblo chico infierno grande, ¿sabés? Si se enteran tus padres esta vez
voy a terminar en problemas y yo no quiero líos con la ley
Asi va a ser mejor, me conocés muy bien
No me sigas, no pierdas tu tiempo, soy libre y vos también
Pueblo chico, infierno grande, ¿Sabés? Si se enteran tus padres esta vez
voy a terminar en problemas y yo no quiero líos con la ley.
Así va a ser mejor, me conocés muy bien
no me sigas, no pierdas tu tiempo, soy libre y vos también.
Sé que vos me amás, sabés que yo te amo
mi amor por vos es único, pero no es mi único amor
Pero no es mi único amor
Pero no es mi único... Pero no es mi único...
Pero no es mi único amoooooooouuuuooooor amoooor




[Beatle chords][Beatle cifra]
© LaCuerda.net · aviso legal · privacidad · es · en · pt · contacto