Acordes de Guitarra » A »Attaque 77 » Espadas y Serpientes (Tab)

Espadas y Serpientes
Attaque 77

Letras, Acordes y Tabs para Guitarra, Bajo y Ukulele

  • Intro: LA - DO#m - RE - MI x2
    
    LA     MI              RE
      Yo recuerdo aquellas noches
      Y también te recuerdo a vos
      Ese fue mi último golpe
      Y también fue mi último amor.
    
    RE          MI     DO#m           FA#m
     Yo te había jurado.... que ya no robaría
    RE        MI           FA#m   (RE5 MI5)
     Yo no quería terminar así
    RE         MI  DO#m           FA#m
     No llores nena.... no llores mas
    RE                             MI
     Sé que muy pronto me van a soltar... Y volver, a verte!!
    
    LA        MI        RE
      Yo volveré, a las calles
      Sé que mi barrio esperara
    
  • Intro :  A C#m D E x2
    
    A       E              D
     Yo recuerdo aquellas noches
    y también te recuerdo a vos
    ese fue mi último golpe
    y también fue mi último amor.
    
    D          E        C#m          F#m
     Yo te había jurado    que ya no robaría
    D          E           F#m   D E
     yo no quería terminar as¡
    D           E    C#m          F#m
     no llores nena,    no llores m s
    D                               E
     se que muy pronto me van a soltar.
    Y volver, a verte...
    
    A         E        D
     Yo volver, a las calles
    
  • Intro :  E  [A E D] x2 C E
    e|--------------------------------------------------------------------------
    B|--------------------------------------------------------------------------
    G|----------------------------------------------------------------7-7-7--9--
    D|-----7-6-------------------------------------------------7-6----7-7-7--9--
    A|---------7---7-7-7--5-5-5--4-4-4-----------------------------7--5-5-5--7--
    E|-5-5--------------------------------7-7-7--5-5-4-5--5-5-------------------
    
    
    [solo] [sobre A E D]
    e|---------------------------------------------------------12---12-----
    B|------------------2-0-2-3-2-0---3-2-0--------------------12---12-----
    G|--4b-4b-4b-4b-4b--------------2-------2---2-1--1-2-1-------14b--14b--
    D|----------------------------------------------2------2---------------
    A|---------------------------------------------------------------------
    E|---------------------------------------------------------------------
    
    
    A       E              D
     Yo recuerdo aquellas noches
    
  • intro:
    
    e|---------------------------------------------------
    B|----------------------8-7--------------------------
    G|-5-5-5-5-4---------7v-----7v-7s9--9be-7-5v---------
    D|-----------7v--5----------------------------7v4v5v-
    A|---------------------------------------------------
    E|---------------------------------------------------
    
    ----------------------------------------------|
    -----------8-7-----------------------------15-|
    --------7v-----7v---7s9--9be-7-5v--------7----|
    -5v--5v---------------------------7v4v5v------|
    ----------------------------------------------|
    ----------------------------------------------|
    
    punteo final:
    
    e|---------------------------------------------------
    B|----------------------8-7--------------------------
    G|-5-5-5-5-4---------7v-----7v-7s9--9be-7-5v---------
    D|-----------7v--5----------------------------7v4v5v-
    A|---------------------------------------------------
    E|---------------------------------------------------
    
    --------------------------------------
  • G5      D5              C5
     Yo recuerdo aquellas noches oh oh oh
    G5         D5             C5
     y también te recuerdo a vos
    G5     D5           C5
     Ese fue mi último golpe
    G5           D5            C5
     y también fue mi ultimo amor.
    
    
    C5         D5
    Yo te habia jurado
    B5         E5
    que ya no robaria
    C5        D5            E5
    Yo no queria terminar asi
    C5       D5
    No llores nena,
    B5        E5
    no llores mas
    
  • Este es el bajo de la versión en vivo que está en el disco Trapos. 
    Si quieren tocar la version de El cielo puede esperar tiene que 
    pasarla de G a A
    
    Intro: (G Bm C D) x 2
    G---------
    D---------
    A---2-3-5-    x 2
    E-3-------
    
    Figura 1 (G D C) 
    
    G------------
    D------------
    A---5-3--3-2- 
    E-3----------
    
    puente antes del estribillo
    (C D Bm Em    C D Em C-D-C D Bm Em   C   D)
    
    G--------------------------------------------
    D--------2---------2-------------2---3-3-5-5-
    A-3-5-2-------3-5----3-5-3--5-2--------------
    E--------------------------------------------
    
    En el estribillo tambien realiza la figura 1. 
    
    Luego hace todo de vuelta comenzando por la intro
    
    finalmente durante el último punteo hace de vuelta la intro y canta el estribllo buiendo un tono,
    es decir:
      A E D      
    G------------
    D------------
    A---7-5--5-4- hasta el final
    E-5----------
    
    cualquier duda o que no lo entienda mande un mail a frayx@ciudad.com.ar
    
    
    AWANTE AKVADOS
    loli tkm
  • +
    ¡Colabora con nosotros!
    Envíanos tu versión de esta canción

Letra de Espadas y Serpientes
Yo recuerdo aquellas noches
Y también te recuerdo a vos
Ese fue mi último golpe
Y también fue mi último amor.
Yo te había jurado.... que ya no robaría
Yo no quería terminar así
No llores nena.... no llores mas
Sé que muy pronto me van a soltar... Y volver, a verte!!
Yo volveré, a las calles
Sé que mi barrio esperara
Yo volveré, a las calles
Hay un lugar para estar con vos una vez más.
Aquí en mi celda estoy muy solo
Sueños de espadas y serpientes
Sueños de muerte y libertad.
Nunca olvidé esa noche
En ese hotel de Flores
Fue aquella la última vez que te vi
No llores nena, no llores mas
Sé que muy pronto me van a soltar... Y volver, a verte!!
Yo volveré, a las calles
Sé que mi barrio esperara
Yo volveré, a las calles
Hay un lugar para estar con vos una vez más.
Estribillo




[Espadas y Serpientes chords][Espadas y Serpientes cifra]
© LaCuerda.net · aviso legal · privacidad · es · en · pt · contacto