Acordes de Guitarra » A »Attaque 77 » Amigo (Tab)

Amigo
Attaque 77

Letras, Acordes y Tabs para Guitarra, Bajo y Ukulele

  •   Bm                  G                     A                    Bm
    -------------------|-------------------|----------------------------|
    ---2--0---2-0--2-0-|---3--2---3-2--3-2-|----3--2---3-2--3-2-2-------|
    ------------------|--0------0-----0-----|--2------2-----2------4-2-4-|
    -4-----4-----4-----|-------------------|----------------------------|
    -------------------|-------------------|----------------------------|
    -------------------|-------------------|----------------------------|      Se repite.
    
         Bm                                    G
    Tu eres mi hermano del alma realmente el amigo
            G                                      D 
    que en todo camino y por nada está siempre conmigo
            G                                       Em
    Aunque eres un hombre aun tienes el alma de un niño
       F#                                       Bm
    aquel que me da su amistad, su respeto y cariño.
    
    Recuerdo que juntos pasamos muy duros momentos
    y tú no cambiaste por fuertes que fueron los vientos.
    Es tu corazón una casa de puertas abiertas.
    
  • |--------------------|-------------------|e
    |--------------------|-------------------|B
    |---6-4--6-4---6-4---|--7-6----7-6----7-6|G
    |-4-----4----4-------|-4-----5------5----|D
    |--------------------|-------------------|A
    |--------------------|-------------------|E
    
    
    |--------------------|-------------------|e
    |--------------------|-------------------|B
    |---7-6----7-6---7-6-|--6-6-4-2-4--------|G
    |-5------7-----7-----|-------------------|D
    |--------------------|-------------------|A
    |--------------------|-------------------|E
    
    
     B5                                     G5
    Tu eres mi hermano del alma realmente el amigo
     A5                                      D5
    que en todo camino y por nada está siempre conmigo.
    
  •         SI5               |         SOL5       |
    
    
    MI: ------------------------|--------------------|--
    SI: ------------------------|--------------------|--
    SOL:-------6-4---6-4---6-4v-|---7-6----7-6---7-6-|--
    RE:  4---4-----4-----4------|--5-----5------5----|--
    LA: ------------------------|--------------------|--
    mi: ------------------------|--------------------|--
    
             LA5        |   SI5  X2
    
    MI: ---------------------------------
    SI: ---------------------------------
    SOL:---7-6--7-6--7-6--4/6--4/2-4v----
    RE: --7----7----7--------------------
    LA: ---------------------------------
    mi: ---------------------------------
    
    SI5                                        SOL5
    
  • SIm   SOL   LA    RE    MIm   FA#         SIm   SOL   LA    RE    MIm   FA#    
    e|-x-| |-x-| |-x-| |-x-| |-x-| |-x-|      e|-2-| |-3-| |-0-| |-5-| |-0-| |-2-|
    B|-x-| |-x-| |-x-| |-x-| |-x-| |-x-|      B|-3-| |-3-| |-2-| |-7-| |-0-| |-2-|
    G|-x-| |-x-| |-x-| |-7-| |-x-| |-x-|      G|-4-| |-4-| |-2-| |-7-| |-0-| |-3-|
    D|-9-| |-5-| |-7-| |-7-| |-2-| |-4-|      D|-4-| |-5-| |-2-| |-7-| |-2-| |-4-|
    A|-9-| |-5-| |-7-| |-5-| |-2-| |-4-|      A|-2-| |-5-| |-0-| |-5-| |-2-| |-4-|
    E|-7-| |-3-| |-5-| |-x-| |-0-| |-2-|      E|-2-| |-3-| |-0-| |-5-| |-0-| |-2-|
                                   PM  *     *     *     *     *     *      
    
      RIFF1               RIFF2               RIFF3       RIFF4               RIFF5
    e|-----------------| |-----------------| |---------| |-----------------| |----------------------|
    B|---------2-------| |---------1s3-----| |---------| |-----------------| |----------------------|
    G|----2--------2---| |-----------------| |-----1s7-| |-2-2-1-1---------| |----2--2-2-1-1--------|
    D|---2---2---2---2-| |---1-5-1-----1---| |-----1s7-| |---------4-4---2-| |---2-----------4-4--2-|
    A|-0---------------| |-3-------------3-| |-7s1-----| |-----------------| |-0--------------------|
    E|-----------------| |-----------------| |---------| |-----------------| |----------------------|
    
      PRE-INTRO     INTRO  
      ---               SIm                 SOL                 LA                       SIm
    e|-----------| |-------------------|-------------------|----------------------------------|
    
  • Sim: x244xx    224432
    Sol: 355xxx    320033
    La:  577xxx    002220
    Re:  x577xx    000323
    Mim: 022xxx    022000
    F#:  244xxx    244322
    
    
    Intro:
      Bm                  G                     A                    Bm
    -------------------|--------------------|-------------------------------|
    -------------------|--------------------|-------------------------------|
    ---6-4---6-4---6-4-|----7-6---7-6---7-6-|---7-6---7-6---7-6---7---4-2-4v|
    -4-----4-----4-----|4/5-----5-----5-----|-7-----7-----7-----7-----------|
    -------------------|--------------------|-------------------------------|
    -------------------|--------------------|-------------------------------|X2
    
    
          SIm                                   SOL
    Tu eres mi hermano del alma realmente el amigo
    
  • _weno aqui otra wena zongz para nueztro 1oko y buen amigo...
    ai lez va y zolmente den 1wen ritmo q ez lo q vale y dizfrutenla..
    
         /=shift slide      v=dejar zonar
    
    INTRO:
    G-----------------------------------------------------------------
    D-----------------------------------------------------------------
    A-2-22222222222222--------------------------------474-222222/12/2-  X2
    E------------------3-33333333333333-5-55555555555-----------------
    
    VERZOZ:
    G---------------------------------------------------------------------
    D---------------------------------------------------------------------
    A-2-22222222222222-----------------------------------5-55555555555555-
    E------------------3-33333333333333-5-55555555555555------------------
    
    G---------------------------------------------------------------------
    D---------------------------------------------------------------------
    A----------------------------------------------------2-222222222/12/2-
    E-3-33333333333333-0-00000000000000-2-22222222
  • +
    ¡Colabora con nosotros!
    Envíanos tu versión de esta canción

Letra de Amigo
Tu eres mi hermano del alma realmente el amigo
que en todo camino y por nada está siempre conmigo
Aunque eres un hombre aun tienes el alma de un niño
aquel que me da su amistad, su respeto y cariño.
Recuerdo que juntos pasamos muy duros momentos
y tú no cambiaste por fuertes que fueron los vientos.
Es tu corazón una casa de puertas abiertas.
Tu eres realmente el más cierto en horas inciertas.
(Acordes de la estrofa)
En ciertos momentos difíciles que hay en la vida
buscamos a quien nos ayude a encontrar la salida
y aquella palabra de fuerza y de fe que me has dado
me da la certeza que siempre estuviste a mi lado.
Tu eres mi amigo del alma en toda jornada
sonrisa y abrazo, testigo a cada llegada
me dices verdades tan grandes con frases abiertas
Tu eres realmente el más cierto en horas inciertas.
No preciso ni decir todo esto que te digo
Pero es bueno así sentir que eres tu mi gran amigo.




[Amigo chords][Amigo cifra]
© LaCuerda.net · aviso legal · privacidad · es · en · pt · contacto