Acordes de Guitarra » S »Soda Stereo » Juego de Seducción (Tab)

Juego de Seducción
Soda Stereo

  • Letra y Acordes
    INTRO: Bsus4 - RIFF(x2)
    
    |--------------------------------------------------------|
    |--------------------------------------------------------|
    |--------------------------------------------------------|
    |---------------11---------------------11----------------|
    |-------12-10------10-12--------12--10----10-12----------|
    |12--11------------------12--11--------------------------|
    
    |--------------------------------------------------------|
    |--------------------------------------------------------|
    |--------------------------------------------------------|
    |---------------11---------------------------------------|
    |-------12--10-----10--12--10--------------------12------|
    |12--11----------------------------14--11--12--11--------|
    
    B                  F#m
       VOY A SER TU MAYORDOMO
       A                 E
    Y VOS HARAS EL ROL DE SEÑORA BIEN
    
  • Tablatura
    LA imaginación
    1|-0-0-0-0-0-0-0-0-0-0-0-
    2|-0-0-0-0-0-0-0-0-0-0-0-
    3|-4-4-4-4-4-4-4-4-4-4-4-
    4|-4-4-4-4-4-4-4-4-4-4-4-
    5|-X-X-0-0-0-0-0-0-0-0-0-
    6|-2-2-X-X-X-X-X-X-X-X-X-
    
    esta noche
          D   D
    1|----2---2-
    2|----3---3-
    3|----2---2-
    4|----4---4-
    5|----5---5-
    6|----2---2-
    
       todo lo puede
       C#m  C#m
    1|--4----4-
    
  • Tablatura
    E--5------    E--3------
    B--5------    B--3------
    G--5--6---    G--3--4---
    D--5--7---    D--3--5---
    A--5--7---    A--3--5---
    E--5------    E--3------
    
    
    INTRO: B F#m Ac5 E
    
    E-12-11------------12-11------------12-11------------12-14-11-12-11--
    B------12-10--10-12-----12-10--10-12-----12-10--10-12--------------12
    G-----------13---------------13---------------13---------------------
    D--------------------------------------------------------------------
    A--------------------------------------------------------------------
    E--------------------------------------------------------------------
    
    -12-11------------12-11-------------E
    ------12-10--10-12-----12-10--10-12-B
    -----------13---------------13------G
    
  • Tablatura
    LA imaginacion
    1ra-----------0---0-0-0-0-0-0-0-0-0-
    2da-----------0---0-0-0-0-0-0-0-0-0-
    3ra-----------4---4-4-4-4-4-4-4-4-4-
    4ta-----------4---4-4-4-4-4-4-4-4-4-
    5ta-----------0---0-0-0-0-0-0-0-0-0-
    6ta-----------X---X-X-X-X-X-X-X-X-X-
    
    esta noche
    1ra---2-2-2-2-
    2da---3-3-3-3-
    3ra---2-2-2-2-
    4ta---0-0-0-0-
    5ta---X-X-X-X-
    6ta---X-X-X-X-
    
       todo lo puede
    1ra--0-0-0-0-0-
    2da--0-0-0-0-0-
    3ra--4-4-4-4-4-
    
  • Tablatura
     The song starts with this chord, repeated several times:
     La cancion empieza con este acorde, tocandolo varias veces:
     
     E|--0------|
     B|--0------|
     G|--4------|
     D|--4------|
     A|--2------|
     E|---------|
     
     For the live version of the last tour, add these:
     Para la version que tocaron en el Ultimo Concierto, agreguen estos acordes:
     
     E|--------0--|
     B|--------0--|
     G|-----2--4--|
     D|--2--2--4--|
     A|--2--0--2--|
     E|--0--------|
     
     
    E|-12--11--------------------------12--11---------------------------------------|
    B|---------12--10------10--12--10----------12--10------10-----------------------|
    G|-----------------12------------------------------12---------------------------|
    D|------------------------------------------------------------------------------|
    A|------------------------------------------------------------------------------|
    E|------------------------------------------------------------------------------|
    
                                              
  • Tab p/Bajo
    2H4 = ATACAR 2 HAMMER ON 4
    
    INTRO:
    G|---------------------------------------------------------------|
    D|---------------------------------------------------------------|
    A|2---2----------------------------------------------------------|
    E|--------2---2---5---5---0---0----------------------------------| X2
    
    ESTROFA:
    G|---------------------------------------------------------------|
    D|---------------------------------------------------------------|
    A|2---2---------------------------2---2-------------------5---4--|
    E|--------2---2---5---5---0---0-----------2---2---5---5----------| X1
    
    CORO:
    G|-------------------------------------|
    D|-------------------------------------|
    A|2--2-2-------------------------------| X4
    E|---------0---0-0---5--5-5----3--3-3--|
    
    ESTROFA:
    G|---------------------------------------------------------------|
    D|---------------------------------------------------------------|
    A|2---2---------------------------2---2-------------------5---16-|
    E|--------2---2---5---5---0-
  • Tab p/Bajo
    Soy nuevo en esto de sacar temas de oido y transcribirlo.....
    algunas cosas pueden tener errores,
    por favor avísenme a mi facebook https://www.facebook.com/alejandroxromero
    
    
    - Juego de Seducción - de la Gira "Me veras Volver" del
     año 2007 cuando soda se volvió a juntar.
    
    
    INTRO:
    G|----------------------|
    D|----------------------| 2x
    A|--2-------------------|
    E|------2----5----0-----|
    
    ESTROFA:
    G|---4------------------------4----------------------------------|
    D|-------4----7----2--------------4-----7--------7-----6---------|
    A|--2------------------------2------------------5-----4----------|
    E|------2----5----0--------------2-----5-------------------------|
    
    
    
    CORO:
    G|-----------------------------------------|
    D|-----------------------------------------|
    A|---2-2-----------------------------------| 4x
    E|--------0000-00----5-5-----3333-33-------|
    
    ESTROFA:
    G|---4------------------------4----------------------------------|
    D|-------4----7----2--------------4-----7--------7-----6----
  • +
    ¡Colabora con nosotros!
    Envíanos tu versión de esta canción
  • Tutorial
    HD
    Como tocar Juego de Seducción (Soda Stereo)
    17:33
  • Tutorial
    HD
    Explicado - Como tocar "Juegos de seducción" de Soda Stereo en el bajo tutorial#52
    6:04
  • Tutorial
    HD
    Juegos de Seducción - SODA STEREO MVV (tutorial)
    4:15

Letra de Juego de Seducción
VOY A SER TU MAYORDOMO
Y VOS HARAS EL ROL DE SEÑORA BIEN
O PUEDO SER TU VIOLADOR
LA IMAGINACION ESTA NOCHE TODO LO PUEDE
TE LLEVARE HASTA EL EXTREMO
TE LLEVARE EH EH EH
ABRAZAME, ESTE ES EL JUEGO DE SEDUCCION
ESTAMOS SOLOS EN LA SELVA
NADIE PUEDE VENIR A RESCATARNOS
ESTOY MURIENDOME DE SED
Y ES TU PROPIA PIEL
LA QUE ME HACE SENTIR ESTE INFIERNO
TE LLEVARE..
RIFF (x2)
TE LLEVARE..
ESTOY MURIENDOME DE SED
Y ES TU PROPIA PIEL
LA QUE ME HACE MOVER
ME HACE MOVER
ME HACE MOVER EN EXTREMO



© LaCuerda.net · aviso legal · privacidad · contacto