Acordes de Guitarra » S »Soda Stereo » Tratame Suavemente (Tab)

Tratame Suavemente
Soda Stereo

Letras, Notas, Punteos, Tablaturas y Acordes de Guitarra (Tabs & Chords)

  • Letra y Acordes
    ----10----10----------10----10------
    --10----10----10----10----10----10--
    7-----7------7-----9-----9-----9----  (x6)
    ------------------------------------
    ------------------------------------
    ------------------------------------
    
    
    D              F#m               C           Bm         A
    Alguien me ha dicho que la soledad, se esconde tras tus ojos
    D            F#m           C        Bm      A
    y que tu blusa atora sentimientos, que respiras
    D            F#m                  C          Bm              A
    tenés que comprender que no puse tus miedos, donde están guardados
    D            F#m    C               Bm         A
    y que no podré quitártelos si al hacerlo me desgarras
    
    
    G           A                 F#m      E
    No quiero soñar mil veces las mismas cosas
    
  • Letra y Acordes
    ----10---10--10----10---10--10--
    --10---10--------10---10--------
    -7----7---------9----9----------
    --------------------------------
    --------------------------------
    --------------------------------
    
    RE             FA#m            DO
    Alguien me ha dicho que la soledad
        SIm             LA
    se esconde tras tus ojos
    RE       FA#m             DO
    y que tu blusa adora sentimientos,
    SIm       LA
    que respiras
    RE               FA#m                DO
    tenés que comprender que no puse tus miedos
    SIm             LA
    donde están guardados
    RE         FA#m    DO
    
  • Letra y Acordes
    ---------------10--------------10-------------------------10--------------10---------
    ---------10--------------10--------------10--------10--------------10 -----------10--
    ----7----------------7---------------7----------9---------------9-------------9------  (x6)
    -------------------------------------------------------------------------------------
    -------------------------------------------------------------------------------------
    -------------------------------------------------------------------------------------
    
    D                         F#m               C9
       Alguien me ha dicho que la soledad
         Bm7                    A      
    se esconde tras tus ojos
    D                  F#m                 C9       Bm7       A
        y que tu blusa adora sentimientos que respiras
    
    Tenes que comprender que no supe tus miedos
    ¿dónde están guardados ?
    y que no podré quitártelos si al hacerlo me desgarras
    
    G                    A
       No quiero soñar 
    
  • Tablatura
      D         F#m       C           Bm   A
    |-2----2--|-2----2--|-0----0--|---2-2--0-0-|
    |-3---3---|-2---2---|-1---1---|---3-3--2-2-|
    |-2--2----|-2--2----|-0--0----|---4-4--2-2-|
    |-0-------|-4-------|-2-------|------------|
    |---------|-4-------|-3-------|------------|
    |---------|-2-------|---------|------------|
    
    D                F#m              C
     Alguien me ha dicho, que la soledad
           Bm           A
     Se esconde tras tus ojos.
    
      D         F#m       C              Bm   A
    |-2----2--|-2----2--|-0----0h20--|---2-2--0-0-|
    |-3---3---|-2---2---|-1---1------|---3-3--2-2-|
    |-2--2----|-2--2----|-0--0-------|---4-4--2-2-|
    |-0-------|-4-------|-2----------|------------|
    |---------|-4-------|-3----------|------------|
    |---------|-2-------|------------|------------|
    
  • Tablatura
           D   F#m  C   Bm  A   G   E   Em
    
    
    Introduccion:
    e ----10----10----------10----10------
    B --10----10----10----10----10----10--
    G 7-----7------7-----9-----9-----9----  (x6)
    D ------------------------------------
    A ------------------------------------
    E ------------------------------------
    
    
    Verso 1:
    D              F#m               C           Bm         A
    Alguien me ha dicho que la soledad, se esconde tras tus ojos
    D            F#m           C        Bm      A
    y que tu blusa atora sentimientos, que respiras
    D            F#m                  C          Bm              A
    tenés que comprender que no puse tus miedos, donde están guardados
    D            F#m    C               Bm         A
    
  • Tab p/Bajo
               INTRO
    G|-------------------------------------------------------------------|
    D|-----------------------4---5---4---5---4---5---4---5---------------|
    A|---0-0-0-0-0-0-0----2---3---2---3---2---3---2---3------------------|
    E|-------------------------------------------------------------------|
    
        ESTA PARTE X4 VECES
    G|-----------------------------------------|
    D|----7------------5-------4---------------|
    A|-5-------4----3-------2-----0-0----------|
    E|------2----------------------------------|
    
        LUEGO SIGUE ESTA PARTE
    G|--------------------------|---------------------------4--------|
    D|-----------------------2--|------------------------------------|
    A|----5-----7-----4---------|------5-----7-----4-----2-----------|
    E|-3-----5-----2------0-----|---3-----5-----2--------------------|
    
    G|---------------------|
    D|--------7------------|
    A|---5-----------5-----|
    E|-3---5---------------|
    
        *Y ESTAS DOS TABLATURAS SE REPITE X2
    *G|----------------|--------------------|
    *D|----------
  • Tab p/Bajo
               INTRO
    G|--------------------------------------|
    D|---4---5---4---5---4---5---4---5------|
    A|-2---3---2---3---2---3---2---3--------|
    E|--------------------------------------|
    
        ESTA PARTE X4 VECES
    G|--------------------------------------|
    D|--------------5-----------------------|
    A|-5--0---3-3-3---2-2--0-0--------------|
    E|------2-------------------------------|
    
        LUEGO SIGUE ESTA PARTE
    G|--------------------------------------|
    D|--------------------------------------|
    A|---5---7---4---2-2--------------------|
    E|-3---5---2----------------------------|
    
    G|----------------|---------------------|
    D|----------------|--------7------------|
    A|---5---7-----2-2|---5-------5---------|
    E|-3---5---2-2----|-3---5---------------|
    
        *Y ESTAS DOS TABLATURAS SE REPITE X2
    *G|----------------|--------------------|
    *D|----------------|--------------------|
    *A|-5-5-5-5-5-5-5-5|--------------------|
    *E|----------------|-2-2-2-2-2-2-2-2----|
    
    *G|----------------|--------------------|
    *D|-
  • Batería
    S |------------x----------| = Aro
    
    
    
        |-------3x-------|                                 |-------11x-----|
    C   |----------------|----------------|o---------------|---------------|
    H   |----------------|----------------|--x-x-x-x-x-x-x-|x-x-x-x-x-x-x-x|
    t   |----------------|----------------|----------------|---------------|
    S   |----------------|--o-o-o-o-o-o-o-|----x-----------|----x----------|
    F   |----------------|--o-o-o-o-o-o-o-|----------------|---------------|
    B   |----------------|----------------|o-----o---------|o-----o--------|
    
        |------21x-------|
    C   |----------------|----------------|o---------------|---------------|
    H   |x-x-x-x-x-x-x-x-|x-x-x-x-x-x-o---|----------------|---------------|
    t   |----------------|----------------|----------------|---------------|
    S   |----x-------x---|----x-------x---|----------------|---------------|
    F   |----------------|----------------|----------------|---------------|
    B   |o-----o---------|o-----o---------|o-----
  • +
    ¡Colabora con nosotros!
    Envíanos tu versión de esta canción
  • Tutorial
    HD
    Como tocar Tratame Suavemente (Soda Stereo)
    35:46
  • Tutorial
    HD
    Como tocar "Tratame suavemente" de Soda Stereo en guitarra
    10:21
  • Tutorial
    HD
    Explicado! Como tocar TRÁTAME SUAVEMENTE el bajo eléctrico tutorial#34
    10:28

Letra de Tratame Suavemente
Alguien me ha dicho que la soledad
se esconde tras tus ojos
y que tu blusa adora sentimientos que respiras
Tenes que comprender que no supe tus miedos
¿dónde están guardados ?
y que no podré quitártelos si al hacerlo me desgarras
No quiero soñar
mil veces las mismas cosas
ni contemplarlas sabiamente
quiero que me trates suavemente
Te comportas de acuerdo
con lo que te dicta cada momento
y estas inconstancia no es algo herocio
es mas bien algo enfermo
no quiero...
no quiero...
Quiero que me trates suavemente
Quiero que me trates suavemente
suavemente suavemente



© LaCuerda.net · Aviso Legal · Privacidad