Acordes de Guitarra » S »Soda Stereo » un misil en mi placard (Tab)

un misil en mi placard
Soda Stereo

Letras, Acordes y Tabs para Guitarra, Bajo y Ukulele

  • G#m    F#m                 C#m
        Refugiados sobre el diván,
      E
    Buscandonos...
     G#m     F#m               C#m
         Agitados por nuestras formas.
      E
    Gustandonos...
    
    B                  A
    Algo ocurrio,una extraña sensación,
      G#m
    un presentimiento.
    
    B                   A
    Tuve que dejar de hacer el amor
       G#m
    en el momento.
    
    
    
  •       E  A  D  G  B  E
    A':   0  7  7  6  5  0
    G':   0  5  5  4  3  0
    ?1:   x  4  4  2  2  x
    Em7:  0  2  2  0  3  0
    Bm:   7  9  9  7  7  7
    ?2:   x  9  9  7  7  x
    F#m7: x  9  11 9 10  9
    
    intro: (A' G' ?1 Em7)X3  A' G' Bm(este Bm un tiempo mas)
    A'      G'             ?1   Em7
    Refugiados sobre el divan
    agitados por nuestras formas
    algo ocurrio una extraña sensacion,un presentimiento
    A'                G'                    Bm(un tiempo mas)
    tuve que dejar de hacer el amor en el momento.
    
    A'        G'        ?1   Em7
    Fui en busca de un abrigo
    encendi un cigarrillo...
    
  • (A9/F# A7/4 A6+/9 Em7 ) se repite 3 veces, A9/F# A7/4 Bm 6ta al aire
      
    
    A)
                    
    A9/F#*    A7/4*          A6+/9*    Em7+*
       Refugiados sobre el diván 
    A9/F#*   A7/4*             A6+/9*   Em7+* 
       Agitados por nuestras formas
       A9/F#*               A7/4*
       Algo ocurrió, una extraña sensación 
              A6+/9*       Em7+*
       Un presentimiento.
       A9/F#*               A7/4*          Bm*        6ta al aire
       Tuve que dejar de hacer el amor, en el momento
    
    A9/7*      A7/4*   A6+/9*     Em7+*  
       Fui en busca de un abrigo
    A9/7*    A7/4* A6+/9*   Em7+*
       Encendí un cigarrillo
    
  • INTRO: G#m - A - C#m - E x2
    
    
    
    G#m         A        C#m        E
    Refugiados sobre el divan, buscandonos
    G#m          A         C#m       E
    agitados por nuestras formas, buscandonos
    B           A           G#m            A
    algo ocurrio, una extraña sensacion, un presentimiento
    B             A           E             F#m
    tuve que dejar de hacer el amor en el momento
    
    G#m          A          C#m        E
    fui en busca de un abrigo, hacia frio
    G#m           A          C#m    E
    encendi un cigarrillo, tenia miedo
    B          A              G#m           A
    y ahi lo vi, un misil en mi placard, en mi placard
    B               A                C#m
    
  • Intro Gm---A---Cm---E (coro y versos)
     Pre coros B---A---Gm---A
               B---A---E---F#m
    
    
    solo 1 (tocar dos veces)
    |-----------------|-----0-(0)-------0--|
    |-7-7-7-----------|---------------0----|
    |-8-----9---8---6-|-(6)---------6------|
    |-9---------9---7-|-(7)-------7--------|
    |-----------------|--------------------|
    |-----------------|--------------------|
    
    |-----------------|-----0-(0)-------0---||
    |-5-5-5-5---4-----|---------------0-----||
    |-6---6-6---4---2-|-(2)---------6-------||
    |-6-------------4-|-(4)-------7---------||
    |---------------4-|-(4)-----------------||
    |-----------------|---------------------||
    
    
  • P= popping
    ~= alargar sonido
    
    
    Intro de guitarra
    
    0:07
                            P
    G-----------------------4---------
    D------------2-2-------------2----
    A-----2----------2_4--2---4-------
    E--4----4-2--------------------00-
    
    0:15
    Verso
    
    "Refugiados sobre el divan (buscandonos)
     Agitados por nuestras formas (gustandonos)
    
                               P
    G--------------------------4----------
    D--------------2-2--------------2-----
    A------2-----2-----2_4--2----4--------   (x2)
    E--4-4--4-2------------------------00-
    
    
    0:30
    
    "Algo ocurrio una extraña sensacion un presentimiento
    
    G--4--------------------------------------
    D----4-------6_7-------5_66----6_77-------
    A------2-2--------------------------------
    E-----------------5-5-------44------5-5-5-
    
    Tuve que dejar de hacer el amor en el momento"
    
    g--4------------------------------------------
    D----4-------6_77-----------------------------
    A------2-2------------------------------------
    E------------------5-5/--000000-0-22222---5-4-
    
    
    0:47
    
    "Fui en
  • Un Misil En Mi Placard - Soda Stereo
    Album: Soda Stereo (1984)
    
    
    
    P= Popping
    
    
    INTRO
    
    
    
    G--------------------4----------------------------------------------------
    D----------22------------2------------------------------------------------
    A----2--------2h4--2---4--------------------------------------------------
    E--4---4-2----------------00----------------------------------------------
    
    
    G-----------------------4-------------------------------------------------
    D-------------22-------------2--------------------------------------------
    A-----2-----4----2h4--2---4-----------------------------------------------
    E--4-4--4-2-------------------00------------------------------------------
    
    
    G------------------4------------------------------------------------------
    D----------22------------2------------------------------------------------
    A----2--------4--2---4----------------------------------------------------
    E--4---4-2----------------00----------------------------------------------
    
    
    
    G--4-
  • +
    ¡Colabora con nosotros!
    Envíanos tu versión de esta canción
  • Tutorial
    HD
    Como tocar "Un misil en mi placard" de Soda Stereo en guitarra
    9:20

Letra de un misil en mi placard
Refugiados sobre el diván,
Buscandonos...
Agitados por nuestras formas.
Gustandonos...
Algo ocurrio,una extraña sensación,
un presentimiento.
Tuve que dejar de hacer el amor
en el momento.
Fui en busca
de un abrigo
Encendi
un cigarrillo.
Y ahi lo vi...
Un misil en mi placard
En mi placard
Un modelo para armar
pero nunca para desarmar
Instrumental:
Te mire tristemente
No hay mas tiempo que perder
Estaba ahí...
un misil en mi placard
Un modelo para armar
pero nunca para desarmar
(Aquí también
¿o creias que estaba lejos?)
Un misil en mi placard
Un misil en mi placard...




[un misil en mi placard chords][un misil en mi placard cifra]
© LaCuerda.net · aviso legal · privacidad · es · en · pt · contacto