Acordes de Guitarra » S »Soda Stereo » Prófugos (Tab)

Prófugos
Soda Stereo

Letras, Notas, Punteos, Tablaturas y Acordes de Guitarra (Tabs & Chords)

  • Letra y Acordes
    INTRO [ E A ] (4)  G
    
                         D   Em
    Somos complices los dos
                                Bm   G
    al menos se que huyo porque amo
                    D   Em
    necesito distinción
                       F#m                           [ E A ] (2)  G
    estar asi despierto   es un delirio de condenados
    
    
                          D  Em
    Como un efecto residual
                               Bm  G
    yo siempre tomare el desviro
                          D  Em
    tus ojos nunca mentiran
                         F#m                          D
    pero ese ruido blanco   es una alarma en mis oidos
    
  • Letra y Acordes
    Em7/9: 022032
    todos los demas acordes busquenlo mas arriba
    donde dice acordes.
    
    Intro: E7   A7   (4 veces)
    
    Gmaj7                              D  Dsus2   Dsus4   D
    Somos cómplices los dos
    Em7/9                        Bm
    al menos se que huyo porque amo
    Gmaj7            D  Dsus2   Dsus4   D
    necesito distinción
    Em7/9               F#sus4
    estar así despierto   es un delirio de condenados
    
    E7  A7  (2)
    
    Como un efecto residual
    yo siempre tomaré el desvío
    tus ojos nunca mentirán
    
  • Tablatura
    E/---2-/--------------------------      -----------------------/
    B/---2-/--------------------------      -----------------------/
    G/---4-/-------------------------- (2)  -----------6-4---4-----/ (2)
    D/---4-/---------------6--4---4---      --5-4-2-4------5---7---/
    A/-----/-----5-4-2-4--------5---7-      -0---------------------/
    E/-----/--0-----------------------      -----------------------/
    
    VERSO:
         G9                      D     Em                                 Bm
    e/---0-----------------------5--5---0---------12/14------------------7--/
    B/---10----------------------7--5---10----10-------------------------7--/
    G/---11----------------------7--7---11-------------------------------7--/
    D/---9-----------------------7--7---9--------------------------------9--/
    A/---10----------------------5--5---10-------------------------------9--/
    E/---x-----------------------x--x---0--------------------------------7--/
            somos complices los 2         al menos se que huyo porque amo
          como un efecto residual         yo siempre tomare el desvio
    
       G9                                 D
    e/------------------------------------5---5-----------------------------/
    
  • Tablatura
    E/---2-/--------------------------      -----------------------/
    B/---2-/--------------------------      -----------------------/
    G/---4-/-------------------------- (2)  -----------6-4---4-----/ (2)
    D/---4-/---------------6--4---4---      --5-4---4------5---7---/
    A/-----/-----5-4---4--------5---7-      -0----7---7------------/
    E/-----/--0-----7---7-------------      -----------------------/
    
    VERSO:
         G9                      D     Em                                 Bm
    e/---0-----------------------5--5---0---------12/14------------------7--/
    B/---10----------------------7--5---10----10-------------------------7--/
    G/---11----------------------7--7---11-------------------------------7--/
    D/---9-----------------------7--7---9--------------------------------9--/
    A/---10----------------------5--5---10-------------------------------9--/
    E/---x-----------------------x--x---0--------------------------------7--/
            somos complices los 2         al menos se que huyo porque amo
          como un efecto residual         yo siempre tomare el desvio
    
       G9                                 D
    e/------------------------------------5---5-----------------------------/
    
  • Tablatura
    e:--------------------------
    B:--------------------------
    G:--------------------------
    D:--------------------------
    A:-2-2-4-5--x-2-2-4-0-5-4---
    E:-0-0-0-0-x--0-0-0-0-0-0---
    
    e:--------------------------------------------------------
    B:-------------------2------------------------------------
    G:---------------------4-2--------------------------------
    D:-2-2-4-5-2--------------4-2)---------------------------
    A:-0-0-0-0-0----------------------2-2-4-5---2-2-4-0-5-4--
    E:--------------------------------0-0-0-0---0-0-0-0-0-0--
    
    e:--------------------------------------------------------
    B:-----------------------2--------------------------------
    G:-------------------------4-2-4)4)4)-2-------------------
    D:-2-2-4-5-2--2-2-0-5-4-----------------------------------
    A:-0-0-0-0-0--0-0-0-0-0-----------------------------------
    E:--------------------------------------------------------
    
  • Tab p/Bajo
    1/-----------------------------------------------
    2/-----------------------------------------------
    3/-----------------------------------------------
    4/---0 ---0 -0 ---3 ---5 ---3 ---5-------------
    
    1/-----------------------------------------------
    2/-----------------------------------------------
    3/-----------------------------------------------
    4/---0 ---0 -0 ---3 ---5 ---3 ---5-------------
    
    1/-----------------------------------------------
    2/-----------------------------------------------
    3/-----------------------------------------------
    4/---0 ---0 ---2 ---2 ---0 ---0 ---2 ---0------
    
    1/-----------------------------------------------
    2/-----------------------------------------------
    3/-----------------------------------------------
    4/---5 ---3 ---0 ---3 ---5 ---3 ---5 ---5------
    
    1/-----------------------------------------------
    2/-----------------------------------------------
    3/--------------5(x 16)---7(x 16)-------------
    4/---3(x 16)----------------------
  • Tab p/Bajo
    Intro
    G|---------------------------|2X|
    D|---------------------------|2X|
    A|-----------------0------0--|2X|
    E|---0---00-0---03-----33----|2X|
    
    Verso 1
    G|--------------------------------------------------|2X|
    D|--------------------------------------------------|2X|
    A|-------------------------0-----------0------------|2X|
    E|---0---0-2-0/2-0---0-2-0-----3-0---3-----3-5-3/5--|2X|
    
    Verso 2
    G|---------------------------------|---------------------------------|
    D|---------------------------------|---------------------------------|
    A|----------5(x18)--7(x18)---------|---------5(x18)--7(x18)--9(x18)--|
    E|--3(x18)------------------7(x18)-|-3(x18)--------------------------|
    
    Verso 1
    
    Verso 3
    G|----------------------------------------|---------------------------------|
    D|----------------------------------------|---------------------------------|
    A|---------5(x18)--7(x18)-----------------|---------5(x18)--7(x18)--9(x18)--|
    E|-3(x18)------------------7(x14)-0-0-0-2-|-3(x18)--------------------------
  • +
    ¡Colabora con nosotros!
    Envíanos tu versión de esta canción
  • Tutorial
    HD
    Como tocar "Profugos" De soda Stereo SOLO Y PARTE FINAL
    5:46
  • Tutorial
    HD
    Prófugos - SODA STEREO (MVV)
    5:55
  • Tutorial
    HD
    Como tocar Prófugos (Soda Stereo)
    53:26

Letra de Prófugos
Somos complices los dos
al menos se que huyo porque amo
necesito distinción
estar asi despierto es un delirio de condenados
Como un efecto residual
yo siempre tomare el desviro
tus ojos nunca mentiran
pero ese ruido blanco es una alarma en mis oidos
No seas tan cruel
no busques más pretextos
no seas tan cruel
siempre seremos profugos los dos
No tenemos donde ir
somos como un area desvastada
carreteras sin sentido
religiones sin motivo, como podremos sobrevivir
No seas tan cruel
no busques más pretextos
no seas tan cruel
siempre seremos
siempre seremos profugos los dos
Ven, no seas tan cruel
no busques más pretextos
no seas tan cruel
siempre seremos profugos... ooh
siempre seremos profugos...
siempre seremos...



© LaCuerda.net · Aviso Legal · Privacidad