Tablatura para Guitarra de Soda Stereo: Juego de Seducción
Conexión · Inscripción
Letras y Acordes
Pantalla Completa
Imprimir
Versión Texto
Añadir Favorito
Otras Versiones

Mostrar Diagramas
Desfile Automático
Manipular Acordes
Formato del Texto


Juego de Seducción(TAB)

Soda Stereo

calidad:
soda0307
AUTOR: Gustavo Cerati
ALBUM: Nada Personal (1985)
Enviado por FRANCO
Cerati:-Hola preciosuras! Bienvenidos al JUEGO DE SEDUCCIÓN!

"INTRO"

1|--0-0-0-0-0-0-0-0-0-0-0-0-0-0-
2|--0-0-0-0-0-0-0-0-0-0-0-0-0-0-
3|--4-4-4-4-4-4-4-4-4-4-4-4-4-4-
4|--4-4-4-4-4-4-4-4-4-4-4-4-4-4-
5|--2-2-2-2-2-2-2-2-2-2-2-2-2-2-
6|--X-X-X-X-X-X-X-X-X-X-X-X-X-X-


1|-0-0/ 0- 0- 0- 0 -0 -0- 0- 0-0-0-0-0-0-0-0-0-0-0-0-0-0-0-
2|-0-0/ 0- 0- 0- 0 -0 -0- 0- 0-0-0-0-0-0-0-0-0-0-0-0-0-0-0-
3|-4-4/14-14-13-13-13-13-11-11-9-9-9-9-5-5-5-5/7-7-7-4-4-4-
4|-4-4/14-14-13-13-13-13-11-11-9-9-9-9-5-5-5-5/7-7-7-4-4-4-
5|-2-2/12-12-11-11-11-11- 9- 9-7-7-7-7-3-3-3-3/5-5-5-2-2-2-
6|-X-X/ X- X- X--X-X-X-X- X- X-X-X-X-X-X-X-X-X-X-X-X-X-X/X-

1|--0-0-0-0-0-0-0-0-0-0-0-0-0-0-
2|--0-0-0-0-0-0-0-0-0-0-0-0-0-0-
3|--4-4-4-4-4-4-4-4-4-4-4-4-4-4-
4|--4-4-4-4-4-4-4-4-4-4-4-4-4-4-
5|--2-2-2-2-2-2-2-2-2-2-2-2-2-2-
6|--X-X-X-X-X-X-X-X-X-X-X-X-X-X-


"RIFF 1"

1|-12-11----------------12-11------------------
2|-------12-10----10-12-------12-10----10-12~--
3|-------------11-------------------11---------

1|-12-11----------------12-14-11-12-11---------
2|-------12-10----10-12----------------12s-----
3|-------------11------------------------------

1|-12-11----------------12-11------------------
2|-------12-10----10-12-------12-10----10-12~--
3|-------------11-------------------11---------

1|-12-11----------------12-14-11-12-11---------
2|-------12-10----10-12----------------12s-----
3|-------------11------------------------------

1|-12-11----------------12-11------------------
2|-------12-10----10-12-------12-10----10-12~--
3|-------------11-------------------11---------

1|-12-11-------------------14~~~~--------------
2|-------12-10----10-12-10---------------------
3|-------------11------------------------------

1|-12-11----------------12-11------------------
2|-------12-10----10-12-------12-10----10-12~--
3|-------------11-------------------11---------

1|-12~~-11~~-----------------------------------
2|-----------12~~------------------------------
3|----------------11~~-------------------------


"VERSO 1"
        Voy a ser tu mayordomo
1|-0---0-0-0-0-0-0-0-0-0--0---0-0-0-0-0-0-0-0-0-
2|-0---0-0-0-0-0-0-0-0-0--0---0-0-0-0-0-0-0-0-0-
3|-4---4-4-4-4-4-4-4-4-4--4---4-4-4-4-4-4-4-4-4-
4|-4---4-4-4-4-4-4-4-4-4--4---4-4-4-4-4-4-4-4-4-
5|-2---2-2-2-2-2-2-2-2-2--X---X-X-X-X-X-X-X-X-X-
6|-X---X-X-X-X-X-X-X-X-X--2---2-2-2-2-2-2-2-2-2-

        y vos harás el rol
1|-0-0-0-0-0-0-0-0-0--0-0-0-0-0-0-0-0-0-
2|-0-0-0-0-0-0-0-0-0--0-0-0-0-0-0-0-0-0-
3|-4-4-4-4-4-4-4-4-4--4-4-4-4-4-4-4-4-4-
4|-4-4-4-4-4-4-4-4-4--4-4-4-4-4-4-4-4-4-
5|-X-X-X-X-X-X-X-X-X--0-0-0-0-0-0-0-0-0-
6|-2-2-2-2-2-2-2-2-2--X-X-X-X-X-X-X-X-X-

 de señora bien
1|-0-0-0-0-0-0-0-0-0-0-
2|-0-0-0-0-0-0-0-0-0-0-
3|-4-4-4-4-4-4-4-4-4-4-
4|-4-4-4-4-4-4-4-4-4-4-
5|-0-0-X-X-X-X-X-X-X-X-
6|-X-X-0-0-0-0-0-0-0-0-

            o puedo ser tu violador
1|-0---0-0-0-0-0-0-0-0-0-0-0-0-0-0-0-0-0-0-0-0-0-0-
2|-0---0-0-0-0-0-0-0-0-0-0-0-0-0-0-0-0-0-0-0-0-0-0-
3|-4---4-4-4-4-4-4-4-4-4-4-4-4-4-4-4-4-4-4-4-4-4-4-
4|-4---4-4-4-4-4-4-4-4-4-4-4-4-4-4-4-4-4-4-4-4-4-4-
5|-2---2-2-2-2-2-2-2-2-2-2-2-2-2-X-X-X-X-X-X-X-X-X-
6|-X---X-X-X-X-X-X-X-X-X-X-X-X-X-2-2-2-2-2-2-2-2-2-

LA imaginación 1|-0-0-0-0-0-0-0-0-0-0-0- 2|-0-0-0-0-0-0-0-0-0-0-0- 3|-4-4-4-4-4-4-4-4-4-4-4- 4|-4-4-4-4-4-4-4-4-4-4-4- 5|-X-X-0-0-0-0-0-0-0-0-0- 6|-2-2-X-X-X-X-X-X-X-X-X- esta noche
D D 1|----2---2- 2|----3---3- 3|----2---2- 4|----4---4- 5|----5---5- 6|----2---2- todo lo puede
C#m C#m 1|--4----4- 2|--5----5- 3|--6----6- 4|--6----6- 5|--4----4- 6|--4----4- "ESTRIBILLO"
B E A G 1|-7- 1|-7- 1|-5- 1|-3- 2|-7- 2|-9- 2|-5- 2|-3- 3|-8- 3|-9- 3|-6- 3|-4- 4|-9- 4|-9- 4|-7- 4|-5- 5|-9- 5|-7- 5|-7- 5|-5- 6|-7- 6|-7- 6|-5- 6|-3-
B E
A G
B te llevareeeeee
E A hasta el extremo
G B E te llevare hey... hey...
A B abrázame
E A G este es el juego de seducción "VERSO 2" Estamos solos en la selva ooooh nadie puede venir a rescatarnos estoy muriéndome de sed SODA! y es tu propia piel la que me hace sentir estoooo (DESPUES DEL 2° ESTRIBILLO HACE ESTO) "RIFF 2" 1|-0-0-0-0--------- 2|-0-0-0-0-2~--0~-- 3|-3-3-3-3--------- 4|-4-4-4-4--------- 5|-4-4-4-4--------- 6|-X-X-X-X--------- 1|-0-0-0-0-2~--0~-- 2|-0-0-0-0--------- 3|-3-3-3-3--------- 4|-4-4-4-4--------- 5|-4-4-4-4--------- 6|-X-X-X-X--------- 1|-0-0-0-0-7~--5~-- 2|-0-0-0-0--------- 3|-3-3-3-3--------- 4|-4-4-4-4--------- 5|-4-4-4-4--------- 6|-X-X-X-X--------- 1|--7-5------------------ 2|------7-5-------------- 3|----------7-5---------- 4|--------------7-5------ 5|------------------7-5~- 6|----------------------- "RIFF 3" 1|-12-11----------------12-11------------------ 2|-------12-10----10-12-------12-10----10-12~-- 3|-------------11-------------------11--------- 1|-12-11----------------12-14-11-12-11--------- 2|-------12-10----10-12----------------12s----- 3|-------------11------------------------------ 1|-12-11----------------12-11------------------ 2|-------12-10----10-12-------12-10----10-12~-- 3|-------------11-------------------11--------- 1|-12-11--------------------------------------- 2|-------12-10----10-12-12/14-14/16-16/18-18--- 3|-------------11------------------------------ 1|-12-11----------------12-11----------------- 2|-------12-10----10-12-------12-10----10-12~- 3|-------------11-------------------11-------- 1|-12-11-------------------14~~--------------- 2|-------12-10----10-12-10-------------------- 3|-------------11----------------------------- 1|-12-11----------------12-11----------------- 2|-------12-10----10-12-------12-10----10-12e- 3|-------------11-------------------11-------- 1|-12~~11~~----------------------------------- 2|---------12~~------------------------------- 3|--------------11~~-------------------------- "RIFF 4" OH OH OH OH OH OH OH 2|-----2-----2------2--------------2-----2------- 3|----4-----4------3--------------4-----4-------- 4|-5-------5----4--------------5-------5--------- 5|----------------------------------------------- 6|----------------------------------------------- SE REPITE EL ESTRIBILLO Y CONTINUA ASI: "VERSO 3" estoy muriéndome de sed 1|-0-0-0-0-0-0-0-0-0-0-0-0-0-0-0-0- 2|-0-0-0-0-0-0-0-0-0-0-0-0-0-0-0-0- 3|-4-4-4-4-4-4-4-4-4-4-4-4-4-4-4-4- 4|-4-4-4-4-4-4-4-4-4-4-4-4-4-4-4-4- 5|-2-2-2-2-2-2-2-2-2-2-2-2-X-X-X-X- 6|-------------------------2-2-2-2- y es tu propia piel 1|-0-0-0-0-0-0-0-0-0-0-0-0-0-0-0-0-0-0- 2|-0-0-0-0-0-0-0-0-0-0-0-0-0-0-0-0-0-0- 3|-4-4-4-4-4-4-4-4-4-4-4-4-4-4-4-4-4-4- 4|-4-4-4-4-4-4-4-4-4-4-4-4-4-4-4-4-4-4- 5|-X-X-X-X-X-X-0-0-0-0-0-0-0-0-0-0-0-0- 6|-2-2-2-2-2-2------------------------- la que me hace mover
D C#m 1|-0-0-0-0-0-0-2-------4-- 2|-0-0-0-0-0-0-3-------5-- 3|-4-4-4-4-4-4-2-------6-- 4|-4-4-4-4-4-4-4-------6-- 5|-0-0-0-0-0-0-5-------4-- 6|-------------2-------4-- me hace mover
D C#m 1|-----2-------4-- 2|-----3-------5-- 3|-----2-------6-- 4|-----4-------6-- 5|-----5-------4-- 6|-----2-------4-- me hace mover
D C#m 1|-----2-------4-- 2|-----3-------5-- 3|-----2-------6-- 4|-----4-------6-- 5|-----5-------4-- 6|-----2-------4-- en extremos
F# 1|--------0------------------- 2|--------0------------------- 3|--------3------------------- 4|--------4------------------- 5|--------4------------------- 6|--------2------------------- TERMINA ASI: "FINAL" 1|--------------------------0------------------------------- 2|-----2-------2--------2-------2------2-------------------- 3|----4-------3-------4---4---4--------3-------------------- 4|-5-------4-------5-------------------4-------------------- 5|-------------------------------------0-------------------- 6|-------------------------------------3-------------------- 1|----------0--------------------0------------------------0- 2|------2-------2------------2-------2-------------2------2- 3|----4---4---4---4--------3---3---3---3---------4--------4- 4|-5---------------------4--------------------5-----------5- 5|---------------------------------------------------------- 6|---------------------------------------------------------- ORDEN: INTRO RIFF 1 VERSO 1 ESTRIBILLO VERSO 2 ESTRIBILLO RIFF 2 RIFF 3 RIFF 4 ESTRIBILLO VERSO 3 FINAL by toree ♪♫
Este fichero es trabajo propio de su transcriptor y representa su interpretación personal de la canción. El material contenido en esta página es
para exclusivo uso privado, por lo que se prohibe su reproducción o retransmisión, así como su uso para fines comerciales.

© LaCuerda.net · Aviso Legal · Privacidad