Tablatura para Bajo de Soda Stereo: Juego de Seducción
Conexión · Inscripción
Letras y Acordes
Pantalla Completa
Imprimir
Versión Texto
Añadir Favorito
Otras Versiones

Mostrar Diagramas
Desfile Automático
Formato del Texto


Juego de Seducción(BAJ)

Soda Stereo

calidad:
soda0304
AUTOR: Gustavo Cerati
ALBUM: Nada Personal (1985)
Enviado por Jofred, basado en alejandro
2H4 = ATACAR 2 HAMMER ON 4

INTRO:
G|---------------------------------------------------------------|
D|---------------------------------------------------------------|
A|2---2----------------------------------------------------------|
E|--------2---2---5---5---0---0----------------------------------| X2

ESTROFA:
G|---------------------------------------------------------------|
D|---------------------------------------------------------------|
A|2---2---------------------------2---2-------------------5---4--|
E|--------2---2---5---5---0---0-----------2---2---5---5----------| X1

CORO:
G|-------------------------------------|
D|-------------------------------------|
A|2--2-2-------------------------------| X4
E|---------0---0-0---5--5-5----3--3-3--|

ESTROFA:
G|---------------------------------------------------------------|
D|---------------------------------------------------------------|
A|2---2---------------------------2---2-------------------5---16-|
E|--------2---2---5---5---0---0-----------2---2---5---5----------| X1

CORO:
G|---------------------------------------------|
D|---------------------------------------------|
A|2--2-2---------------------------------------| X4
E|---------0---0-0---5--5-5----3--3-3----------|

estrofa, coro...

G|--------------------------------------|
D|----------2H4-2----2-----2------------|
A|--2H4-2--------------4-----4----------| X1
E|2-------2-------2------2--------------|

PUNTEO:
G|-----------------------------------------------------|
D|-----------------------------------------------------|
A|---0-0---0---0---0-----------2-2---2---2---2---------| X4
E|-------------------2-------------------------4-------|

G|--------------------------------------------------------------------|
D|--------------------------------------------------------------------|
A|--------------------------------------------------------------------|  X1
E|--3-3--3--3--3-3---2-2--2--2--2-2---3-3--3--3--3-3---4-4--4--4--4-4-|

coro,....

G|------------------------------------------------|
D|------------------------------------------------|
A|---2--2-2---------------------------------------| X4
E|------------0---0-0---5--5-5----3--3-3----------|


ESTROFA FINAL:
G|---------------------------------------------------|
D|---------------------------------------------------|
A|2-----------------------5--4--5--4--5--4-----------|
E|--------2-------5-------------------------2--------| X1

FINAL:
G|----------------------------------------------------|
D|----------------------------------------------------|
A|----------------------------------------------------|
E|3-------2-------3-------4-------3-------2-------3---| X1
Este fichero es trabajo propio de su transcriptor y representa su interpretación personal de la canción. El material contenido en esta página es
para exclusivo uso privado, por lo que se prohibe su reproducción o retransmisión, así como su uso para fines comerciales.

© LaCuerda.net · Aviso Legal · Privacidad